  0
SECTION
  2
HEADER
  9
$ACADVER
  1
AC1021
  9
$ACADMAINTVER
 70
    50
  9
$DWGCODEPAGE
  3
ANSI_1252
  9
$INSBASE
 10
0.0
 20
0.0
 30
0.0
  9
$EXTMIN
 10
1.000000000000000E+20
 20
1.000000000000000E+20
 30
1.000000000000000E+20
  9
$EXTMAX
 10
-1.000000000000000E+20
 20
-1.000000000000000E+20
 30
-1.000000000000000E+20
  9
$LIMMIN
 10
0.0
 20
0.0
  9
$LIMMAX
 10
12.0
 20
9.0
  9
$ORTHOMODE
 70
     0
  9
$REGENMODE
 70
     1
  9
$FILLMODE
 70
     1
  9
$QTEXTMODE
 70
     0
  9
$MIRRTEXT
 70
     0
  9
$LTSCALE
 40
1.0
  9
$ATTMODE
 70
     1
  9
$TEXTSIZE
 40
0.2
  9
$TRACEWID
 40
0.05
  9
$TEXTSTYLE
  7
Standard
  9
$CLAYER
  8
0
  9
$CELTYPE
  6
ByLayer
  9
$CECOLOR
 62
   256
  9
$CELTSCALE
 40
1.0
  9
$DISPSILH
 70
     0
  9
$DIMSCALE
 40
1.0
  9
$DIMASZ
 40
0.18
  9
$DIMEXO
 40
0.0625
  9
$DIMDLI
 40
0.38
  9
$DIMRND
 40
0.0
  9
$DIMDLE
 40
0.0
  9
$DIMEXE
 40
0.18
  9
$DIMTP
 40
0.0
  9
$DIMTM
 40
0.0
  9
$DIMTXT
 40
0.18
  9
$DIMCEN
 40
0.09
  9
$DIMTSZ
 40
0.0
  9
$DIMTOL
 70
     0
  9
$DIMLIM
 70
     0
  9
$DIMTIH
 70
     1
  9
$DIMTOH
 70
     1
  9
$DIMSE1
 70
     0
  9
$DIMSE2
 70
     0
  9
$DIMTAD
 70
     0
  9
$DIMZIN
 70
     0
  9
$DIMBLK
  1

  9
$DIMASO
 70
     1
  9
$DIMSHO
 70
     1
  9
$DIMPOST
  1

  9
$DIMAPOST
  1

  9
$DIMALT
 70
     0
  9
$DIMALTD
 70
     2
  9
$DIMALTF
 40
25.4
  9
$DIMLFAC
 40
1.0
  9
$DIMTOFL
 70
     0
  9
$DIMTVP
 40
0.0
  9
$DIMTIX
 70
     0
  9
$DIMSOXD
 70
     0
  9
$DIMSAH
 70
     0
  9
$DIMBLK1
  1

  9
$DIMBLK2
  1

  9
$DIMSTYLE
  2
Standard
  9
$DIMCLRD
 70
     0
  9
$DIMCLRE
 70
     0
  9
$DIMCLRT
 70
     0
  9
$DIMTFAC
 40
1.0
  9
$DIMGAP
 40
0.09
  9
$DIMJUST
 70
     0
  9
$DIMSD1
 70
     0
  9
$DIMSD2
 70
     0
  9
$DIMTOLJ
 70
     1
  9
$DIMTZIN
 70
     0
  9
$DIMALTZ
 70
     0
  9
$DIMALTTZ
 70
     0
  9
$DIMUPT
 70
     0
  9
$DIMDEC
 70
     4
  9
$DIMTDEC
 70
     4
  9
$DIMALTU
 70
     2
  9
$DIMALTTD
 70
     2
  9
$DIMTXSTY
  7
Standard
  9
$DIMAUNIT
 70
     0
  9
$DIMADEC
 70
     0
  9
$DIMALTRND
 40
0.0
  9
$DIMAZIN
 70
     0
  9
$DIMDSEP
 70
    46
  9
$DIMATFIT
 70
     3
  9
$DIMFRAC
 70
     0
  9
$DIMLDRBLK
  1

  9
$DIMLUNIT
 70
     2
  9
$DIMLWD
 70
    -2
  9
$DIMLWE
 70
    -2
  9
$DIMTMOVE
 70
     0
  9
$DIMFXL
 40
1.0
  9
$DIMFXLON
 70
     0
  9
$DIMJOGANG
 40
0.7853981633974483
  9
$DIMTFILL
 70
     0
  9
$DIMTFILLCLR
 70
     0
  9
$DIMARCSYM
 70
     0
  9
$DIMLTYPE
  6

  9
$DIMLTEX1
  6

  9
$DIMLTEX2
  6

  9
$LUNITS
 70
     2
  9
$LUPREC
 70
     4
  9
$SKETCHINC
 40
0.1
  9
$FILLETRAD
 40
0.0
  9
$AUNITS
 70
     0
  9
$AUPREC
 70
     0
  9
$MENU
  1
.
  9
$ELEVATION
 40
0.0
  9
$PELEVATION
 40
0.0
  9
$THICKNESS
 40
0.0
  9
$LIMCHECK
 70
     0
  9
$CHAMFERA
 40
0.0
  9
$CHAMFERB
 40
0.0
  9
$CHAMFERC
 40
0.0
  9
$CHAMFERD
 40
0.0
  9
$SKPOLY
 70
     0
  9
$TDCREATE
 40
2459543.617835648
  9
$TDUCREATE
 40
2459543.951168981
  9
$TDUPDATE
 40
2459543.617835648
  9
$TDUUPDATE
 40
2459543.951168981
  9
$TDINDWG
 40
0.0000115741
  9
$TDUSRTIMER
 40
0.0000115741
  9
$USRTIMER
 70
     1
  9
$ANGBASE
 50
0.0
  9
$ANGDIR
 70
     0
  9
$PDMODE
 70
     0
  9
$PDSIZE
 40
0.0
  9
$PLINEWID
 40
0.0
  9
$SPLFRAME
 70
     0
  9
$SPLINETYPE
 70
     6
  9
$SPLINESEGS
 70
     8
  9
$HANDSEED
  5
196
  9
$SURFTAB1
 70
     6
  9
$SURFTAB2
 70
     6
  9
$SURFTYPE
 70
     6
  9
$SURFU
 70
     6
  9
$SURFV
 70
     6
  9
$UCSBASE
  2

  9
$UCSNAME
  2

  9
$UCSORG
 10
0.0
 20
0.0
 30
0.0
  9
$UCSXDIR
 10
1.0
 20
0.0
 30
0.0
  9
$UCSYDIR
 10
0.0
 20
1.0
 30
0.0
  9
$UCSORTHOREF
  2

  9
$UCSORTHOVIEW
 70
     0
  9
$UCSORGTOP
 10
0.0
 20
0.0
 30
0.0
  9
$UCSORGBOTTOM
 10
0.0
 20
0.0
 30
0.0
  9
$UCSORGLEFT
 10
0.0
 20
0.0
 30
0.0
  9
$UCSORGRIGHT
 10
0.0
 20
0.0
 30
0.0
  9
$UCSORGFRONT
 10
0.0
 20
0.0
 30
0.0
  9
$UCSORGBACK
 10
0.0
 20
0.0
 30
0.0
  9
$PUCSBASE
  2

  9
$PUCSNAME
  2

  9
$PUCSORG
 10
0.0
 20
0.0
 30
0.0
  9
$PUCSXDIR
 10
1.0
 20
0.0
 30
0.0
  9
$PUCSYDIR
 10
0.0
 20
1.0
 30
0.0
  9
$PUCSORTHOREF
  2

  9
$PUCSORTHOVIEW
 70
     0
  9
$PUCSORGTOP
 10
0.0
 20
0.0
 30
0.0
  9
$PUCSORGBOTTOM
 10
0.0
 20
0.0
 30
0.0
  9
$PUCSORGLEFT
 10
0.0
 20
0.0
 30
0.0
  9
$PUCSORGRIGHT
 10
0.0
 20
0.0
 30
0.0
  9
$PUCSORGFRONT
 10
0.0
 20
0.0
 30
0.0
  9
$PUCSORGBACK
 10
0.0
 20
0.0
 30
0.0
  9
$USERI1
 70
     0
  9
$USERI2
 70
     0
  9
$USERI3
 70
     0
  9
$USERI4
 70
     0
  9
$USERI5
 70
     0
  9
$USERR1
 40
0.0
  9
$USERR2
 40
0.0
  9
$USERR3
 40
0.0
  9
$USERR4
 40
0.0
  9
$USERR5
 40
0.0
  9
$WORLDVIEW
 70
     1
  9
$SHADEDGE
 70
     3
  9
$SHADEDIF
 70
    70
  9
$TILEMODE
 70
     1
  9
$MAXACTVP
 70
    64
  9
$PINSBASE
 10
0.0
 20
0.0
 30
0.0
  9
$PLIMCHECK
 70
     0
  9
$PEXTMIN
 10
1.000000000000000E+20
 20
1.000000000000000E+20
 30
1.000000000000000E+20
  9
$PEXTMAX
 10
-1.000000000000000E+20
 20
-1.000000000000000E+20
 30
-1.000000000000000E+20
  9
$PLIMMIN
 10
0.0
 20
0.0
  9
$PLIMMAX
 10
12.0
 20
9.0
  9
$UNITMODE
 70
     0
  9
$VISRETAIN
 70
     1
  9
$PLINEGEN
 70
     0
  9
$PSLTSCALE
 70
     1
  9
$TREEDEPTH
 70
  3020
  9
$CMLSTYLE
  2
Standard
  9
$CMLJUST
 70
     0
  9
$CMLSCALE
 40
1.0
  9
$PROXYGRAPHICS
 70
     1
  9
$MEASUREMENT
 70
     0
  9
$CELWEIGHT
370
    -1
  9
$ENDCAPS
280
     0
  9
$JOINSTYLE
280
     0
  9
$LWDISPLAY
290
     0
  9
$INSUNITS
 70
     0
  9
$HYPERLINKBASE
  1

  9
$STYLESHEET
  1

  9
$XEDIT
290
     1
  9
$CEPSNTYPE
380
     0
  9
$PSTYLEMODE
290
     1
  9
$FINGERPRINTGUID
  2
{89EE9AF6-7C95-B04E-A5BD-BF16D48C4C9D}
  9
$VERSIONGUID
  2
{B1B03A37-FAEC-C44E-9C2B-FA7E7C4C2A64}
  9
$EXTNAMES
290
     1
  9
$PSVPSCALE
 40
0.0
  9
$OLESTARTUP
290
     0
  9
$SORTENTS
280
   127
  9
$INDEXCTL
280
     0
  9
$HIDETEXT
280
     1
  9
$XCLIPFRAME
290
     0
  9
$HALOGAP
280
     0
  9
$OBSCOLOR
 70
   257
  9
$OBSLTYPE
280
     0
  9
$INTERSECTIONDISPLAY
280
     0
  9
$INTERSECTIONCOLOR
 70
   257
  9
$DIMASSOC
280
     2
  9
$PROJECTNAME
  1

  9
$CAMERADISPLAY
290
     0
  9
$LENSLENGTH
 40
50.0
  9
$CAMERAHEIGHT
 40
0.0
  9
$STEPSPERSEC
 40
2.0
  9
$STEPSIZE
 40
6.0
  9
$3DDWFPREC
 40
2.0
  9
$PSOLWIDTH
 40
0.25
  9
$PSOLHEIGHT
 40
4.0
  9
$LOFTANG1
 40
1.570796326794896
  9
$LOFTANG2
 40
1.570796326794896
  9
$LOFTMAG1
 40
0.0
  9
$LOFTMAG2
 40
0.0
  9
$LOFTPARAM
 70
     7
  9
$LOFTNORMALS
280
     1
  9
$LATITUDE
 40
37.795
  9
$LONGITUDE
 40
-122.394
  9
$NORTHDIRECTION
 40
0.0
  9
$TIMEZONE
 70
 -8000
  9
$LIGHTGLYPHDISPLAY
280
     1
  9
$TILEMODELIGHTSYNCH
280
     1
  9
$CMATERIAL
347
11
  9
$SOLIDHIST
280
     0
  9
$SHOWHIST
280
     1
  9
$DWFFRAME
280
     2
  9
$DGNFRAME
280
     0
  9
$REALWORLDSCALE
290
     1
  9
$INTERFERECOLOR
 62
     1
  9
$INTERFEREOBJVS
345
33
  9
$INTERFEREVPVS
346
30
  9
$CSHADOW
280
     0
  9
$SHADOWPLANELOCATION
 40
0.0
  0
ENDSEC
  0
SECTION
  2
CLASSES
  0
CLASS
  1
ACDBDICTIONARYWDFLT
  2
AcDbDictionaryWithDefault
  3
ObjectDBX Classes
 90
        0
 91
        1
280
     0
281
     0
  0
CLASS
  1
MATERIAL
  2
AcDbMaterial
  3
ObjectDBX Classes
 90
     1153
 91
        3
280
     0
281
     0
  0
CLASS
  1
VISUALSTYLE
  2
AcDbVisualStyle
  3
ObjectDBX Classes
 90
     4095
 91
       24
280
     0
281
     0
  0
CLASS
  1
SCALE
  2
AcDbScale
  3
ObjectDBX Classes
 90
     1153
 91
       17
280
     0
281
     0
  0
CLASS
  1
TABLESTYLE
  2
AcDbTableStyle
  3
ObjectDBX Classes
 90
     4095
 91
        1
280
     0
281
     0
  0
CLASS
  1
MLEADERSTYLE
  2
AcDbMLeaderStyle
  3
ACDB_MLEADERSTYLE_CLASS
 90
     4095
 91
        1
280
     0
281
     0
  0
CLASS
  1
ACDBSECTIONVIEWSTYLE
  2
AcDbSectionViewStyle
  3
ObjectDBX Classes
 90
     1025
 91
        1
280
     0
281
     0
  0
CLASS
  1
ACDBDETAILVIEWSTYLE
  2
AcDbDetailViewStyle
  3
ObjectDBX Classes
 90
     1025
 91
        1
280
     0
281
     0
  0
CLASS
  1
DICTIONARYVAR
  2
AcDbDictionaryVar
  3
ObjectDBX Classes
 90
        0
 91
        6
280
     0
281
     0
  0
CLASS
  1
CELLSTYLEMAP
  2
AcDbCellStyleMap
  3
ObjectDBX Classes
 90
     1152
 91
        1
280
     0
281
     0
  0
ENDSEC
  0
SECTION
  2
TABLES
  0
TABLE
  2
VPORT
  5
8
330
0
100
AcDbSymbolTable
 70
     1
  0
VPORT
  5
57
330
8
100
AcDbSymbolTableRecord
100
AcDbViewportTableRecord
  2
*Active
 70
     0
 10
0.0
 20
0.0
 11
1.0
 21
1.0
 12
500.0
 22
500.0
 13
0.0
 23
0.0
 14
1.0
 24
1.0
 15
0.0
 25
0.0
 16
0.0
 26
0.0
 36
1.0
 17
0.0
 27
0.0
 37
0.0
 40
12.0
 41
1.0
 42
50.0
 43
0.0
 44
0.0
 50
0.0
 51
0.0
 71
     0
 72
   100
 73
     1
 74
     1
 75
     0
 76
     0
 77
     0
 78
     0
281
     0
 65
     1
110
0.0
120
0.0
130
0.0
111
1.0
121
0.0
131
0.0
112
0.0
122
1.0
132
0.0
 79
     0
146
0.0
 60
     3
 61
     5
292
     1
282
     1
141
0.0
142
0.0
 63
   250
421
  3355443
  0
ENDTAB
  0
TABLE
  2
LTYPE
  5
5
330
0
100
AcDbSymbolTable
 70
     1
  0
LTYPE
  5
5B
330
5
100
AcDbSymbolTableRecord
100
AcDbLinetypeTableRecord
  2
ByBlock
 70
     0
  3

 72
    65
 73
     0
 40
0.0
  0
LTYPE
  5
5C
330
5
100
AcDbSymbolTableRecord
100
AcDbLinetypeTableRecord
  2
ByLayer
 70
     0
  3

 72
    65
 73
     0
 40
0.0
  0
LTYPE
  5
5D
330
5
100
AcDbSymbolTableRecord
100
AcDbLinetypeTableRecord
  2
Continuous
 70
     0
  3
Solid line
 72
    65
 73
     0
 40
0.0
  0
ENDTAB
  0
TABLE
  2
LAYER
  5
2
330
0
100
AcDbSymbolTable
 70
     2
  0
LAYER
  5
54
330
2
100
AcDbSymbolTableRecord
100
AcDbLayerTableRecord
  2
0
 70
     0
 62
     7
  6
Continuous
370
    -3
390
F
347
21
  0
LAYER
  5
78
330
2
100
AcDbSymbolTableRecord
100
AcDbLayerTableRecord
  2
Vector Layer 1
 70
     0
 62
     7
  6
Continuous
370
    30
390
F
347
21
  0
ENDTAB
  0
TABLE
  2
STYLE
  5
3
330
0
100
AcDbSymbolTable
 70
     2
  0
STYLE
  5
55
330
3
100
AcDbSymbolTableRecord
100
AcDbTextStyleTableRecord
  2
Standard
 70
     0
 40
0.0
 41
1.0
 50
0.0
 71
     0
 42
0.2
  3
txt
  4

  0
STYLE
  5
5A
330
3
100
AcDbSymbolTableRecord
100
AcDbTextStyleTableRecord
  2
Annotative
 70
     0
 40
0.0
 41
1.0
 50
0.0
 71
     0
 42
0.2
  3
txt
  4

1001
AcadAnnotative
1000
AnnotativeData
1002
{
1070
     1
1070
     1
1002
}
  0
ENDTAB
  0
TABLE
  2
VIEW
  5
6
330
0
100
AcDbSymbolTable
 70
     0
  0
ENDTAB
  0
TABLE
  2
UCS
  5
7
330
0
100
AcDbSymbolTable
 70
     0
  0
ENDTAB
  0
TABLE
  2
APPID
  5
9
330
0
100
AcDbSymbolTable
 70
     3
  0
APPID
  5
56
330
9
100
AcDbSymbolTableRecord
100
AcDbRegAppTableRecord
  2
ACAD
 70
     0
  0
APPID
  5
5E
330
9
100
AcDbSymbolTableRecord
100
AcDbRegAppTableRecord
  2
AcadAnnotative
 70
     0
  0
APPID
  5
18F
330
9
100
AcDbSymbolTableRecord
100
AcDbRegAppTableRecord
  2
ACAD_MLEADERVER
 70
     0
  0
ENDTAB
  0
TABLE
  2
DIMSTYLE
  5
A
330
0
100
AcDbSymbolTable
 70
     2
100
AcDbDimStyleTable
 71
     0
  0
DIMSTYLE
105
58
330
A
100
AcDbSymbolTableRecord
100
AcDbDimStyleTableRecord
  2
Standard
 70
     0
340
55
  0
DIMSTYLE
105
59
330
A
100
AcDbSymbolTableRecord
100
AcDbDimStyleTableRecord
  2
Annotative
 70
     0
340
55
1001
AcadAnnotative
1000
AnnotativeData
1002
{
1070
     1
1070
     1
1002
}
  0
ENDTAB
  0
TABLE
  2
BLOCK_RECORD
  5
1
330
0
100
AcDbSymbolTable
 70
     1
  0
BLOCK_RECORD
  5
70
330
1
100
AcDbSymbolTableRecord
100
AcDbBlockTableRecord
  2
*Model_Space
340
73
 70
     0
280
     1
281
     0
  0
BLOCK_RECORD
  5
6C
330
1
100
AcDbSymbolTableRecord
100
AcDbBlockTableRecord
  2
*Paper_Space
340
6F
 70
     0
280
     1
281
     0
  0
BLOCK_RECORD
  5
74
330
1
100
AcDbSymbolTableRecord
100
AcDbBlockTableRecord
  2
*Paper_Space0
340
77
 70
     0
280
     1
281
     0
  0
ENDTAB
  0
ENDSEC
  0
SECTION
  2
BLOCKS
  0
BLOCK
  5
71
330
70
100
AcDbEntity
  8
0
100
AcDbBlockBegin
  2
*Model_Space
 70
     0
 10
0.0
 20
0.0
 30
0.0
  3
*Model_Space
  1

  0
ENDBLK
  5
72
330
70
100
AcDbEntity
  8
0
100
AcDbBlockEnd
  0
BLOCK
  5
6D
330
6C
100
AcDbEntity
 67
     1
  8
0
100
AcDbBlockBegin
  2
*Paper_Space
 70
     0
 10
0.0
 20
0.0
 30
0.0
  3
*Paper_Space
  1

  0
ENDBLK
  5
6E
330
6C
100
AcDbEntity
 67
     1
  8
0
100
AcDbBlockEnd
  0
BLOCK
  5
75
330
74
100
AcDbEntity
 67
     1
  8
0
100
AcDbBlockBegin
  2
*Paper_Space0
 70
     0
 10
0.0
 20
0.0
 30
0.0
  3
*Paper_Space0
  1

  0
ENDBLK
  5
76
330
74
100
AcDbEntity
 67
     1
  8
0
100
AcDbBlockEnd
  0
ENDSEC
  0
SECTION
  2
ENTITIES
  0
LWPOLYLINE
  5
79
330
70
100
AcDbEntity
  8
Vector Layer 1
 62
    18
420
        0
370
    30
100
AcDbPolyline
 90
        8
 70
     0
 43
0.0
 10
-0.0000000000000089
 20
-2.499999999999999
 10
-0.0000000000000089
 20
2.499999999999999
 10
-0.0000000000000089
 20
2.499999999999999
 10
-12.59803308414617
 20
2.499999999999999
 10
-12.59803308414617
 20
2.499999999999999
 10
-12.59803308414617
 20
-2.5
 10
-12.59803308414617
 20
-2.5
 10
-0.0000000000000089
 20
-2.499999999999999
210
0.0
220
0.0
230
-1.0
  0
LINE
  5
7A
330
70
100
AcDbEntity
  8
Vector Layer 1
 62
    18
420
        0
370
    30
100
AcDbLine
 10
0.920811907876522
 20
1.502067672284705
 30
0.0
 11
0.920811907876522
 21
-1.496230583934996
 31
0.0
  0
LINE
  5
7B
330
70
100
AcDbEntity
  8
Vector Layer 1
 62
    18
420
        0
370
    30
100
AcDbLine
 10
0.920811907876522
 20
1.502067672284705
 30
0.0
 11
12.59803308414618
 21
1.502067672284705
 31
0.0
  0
LINE
  5
7C
330
70
100
AcDbEntity
  8
Vector Layer 1
 62
    18
420
        0
370
    30
100
AcDbLine
 10
0.920811907876522
 20
-1.496230583934997
 30
0.0
 11
12.59803308414617
 21
-1.496230583934997
 31
0.0
  0
LINE
  5
7D
330
70
100
AcDbEntity
  8
Vector Layer 1
 62
    18
420
        0
370
    30
100
AcDbLine
 10
1.378655003676541
 20
1.502067672284705
 30
0.0
 11
1.378655003676541
 21
-1.496230583934997
 31
0.0
  0
LINE
  5
7E
330
70
100
AcDbEntity
  8
Vector Layer 1
 62
    18
420
        0
370
    30
100
AcDbLine
 10
0.0000000000000089
 20
2.337192468015701
 30
0.0
 11
12.59803308414617
 21
2.337192468015701
 31
0.0
  0
LINE
  5
7F
330
70
100
AcDbEntity
  8
Vector Layer 1
 62
    18
420
        0
370
    30
100
AcDbLine
 10
0.0000000000000089
 20
-2.332222844028945
 30
0.0
 11
12.59803308414617
 21
-2.332222844028945
 31
0.0
  0
LINE
  5
80
330
70
100
AcDbEntity
  8
Vector Layer 1
 62
    18
420
        0
370
    30
100
AcDbLine
 10
1.378655003676541
 20
1.454393182915716
 30
0.0
 11
12.59803308414618
 21
1.454393182915716
 31
0.0
  0
LINE
  5
81
330
70
100
AcDbEntity
  8
Vector Layer 1
 62
    18
420
        0
370
    30
100
AcDbLine
 10
1.378655003676541
 20
1.206411566101751
 30
0.0
 11
12.59803308414618
 21
1.206411566101751
 31
0.0
  0
LINE
  5
82
330
70
100
AcDbEntity
  8
Vector Layer 1
 62
    18
420
        0
370
    30
100
AcDbLine
 10
1.378655003676541
 20
0.6079466455273034
 30
0.0
 11
12.59803308414618
 21
0.6079466455273034
 31
0.0
  0
LINE
  5
83
330
70
100
AcDbEntity
  8
Vector Layer 1
 62
    18
420
        0
370
    30
100
AcDbLine
 10
1.378655003676541
 20
0.2995207054207418
 30
0.0
 11
12.59803308414617
 21
0.2995207054207418
 31
0.0
  0
LINE
  5
84
330
70
100
AcDbEntity
  8
Vector Layer 1
 62
    18
420
        0
370
    30
100
AcDbLine
 10
1.378655003676541
 20
-0.292256074885435
 30
0.0
 11
12.59803308414617
 21
-0.292256074885435
 31
0.0
  0
LINE
  5
85
330
70
100
AcDbEntity
  8
Vector Layer 1
 62
    18
420
        0
370
    30
100
AcDbLine
 10
1.378655003676541
 20
-0.6006820149919962
 30
0.0
 11
12.59803308414617
 21
-0.6006820149919962
 31
0.0
  0
LINE
  5
86
330
70
100
AcDbEntity
  8
Vector Layer 1
 62
    18
420
        0
370
    30
100
AcDbLine
 10
1.378655003676541
 20
-1.44896181926565
 30
0.0
 11
12.59803308414617
 21
-1.44896181926565
 31
0.0
  0
LINE
  5
87
330
70
100
AcDbEntity
  8
Vector Layer 1
 62
    18
420
        0
370
    30
100
AcDbLine
 10
1.378655003676541
 20
-1.200325494793025
 30
0.0
 11
12.59803308414617
 21
-1.200325494793025
 31
0.0
  0
LINE
  5
88
330
70
100
AcDbEntity
  8
Vector Layer 1
 62
    18
420
        0
370
    30
100
AcDbLine
 10
-9.956308627678675
 20
-4.833903791910334
 30
0.0
 11
12.58659569178306
 21
-4.833903791910334
 31
0.0
  0
LINE
  5
89
330
70
100
AcDbEntity
  8
Vector Layer 1
 62
    18
420
        0
370
    30
100
AcDbLine
 10
7.560705231082985
 20
7.584483121117244
 30
0.0
 11
7.560705231082985
 21
4.586184864897528
 31
0.0
  0
LINE
  5
8A
330
70
100
AcDbEntity
  8
Vector Layer 1
 62
    18
420
        0
370
    30
100
AcDbLine
 10
6.618553087817497
 20
7.584483121117244
 30
0.0
 11
6.618553087817497
 21
4.586184864897528
 31
0.0
  0
LINE
  5
8B
330
70
100
AcDbEntity
  8
Vector Layer 1
 62
    18
420
        0
370
    30
100
AcDbLine
 10
12.59611079867347
 20
3.750192604803581
 30
0.0
 11
0.0000000000000071
 21
3.750192604803581
 31
0.0
  0
LINE
  5
8C
330
70
100
AcDbEntity
  8
Vector Layer 1
 62
    18
420
        0
370
    30
100
AcDbLine
 10
6.618553087817497
 20
4.633453629566878
 30
0.0
 11
0.0000000000000089
 21
4.633453629566878
 31
0.0
  0
POLYLINE
  5
8D
330
70
100
AcDbEntity
  8
Vector Layer 1
 62
    18
420
        0
370
    30
100
AcDb3dPolyline
 66
     1
 10
0.0
 20
0.0
 30
0.0
 70
     8
  0
VERTEX
  5
8E
330
8D
100
AcDbEntity
  8
0
 62
    18
420
        0
100
AcDbVertex
100
AcDb3dPolylineVertex
 10
7.560705231082985
 20
4.586184864897528
 30
0.0
 70
    32
  0
VERTEX
  5
8F
330
8D
100
AcDbEntity
  8
0
 62
    18
420
        0
100
AcDbVertex
100
AcDb3dPolylineVertex
 10
6.618553087817497
 20
4.586184864897528
 30
0.0
 70
    32
  0
VERTEX
  5
90
330
8D
100
AcDbEntity
  8
0
 62
    18
420
        0
100
AcDbVertex
100
AcDb3dPolylineVertex
 10
0.0000000000000089
 20
4.586184864897528
 30
0.0
 70
    32
  0
SEQEND
  5
91
330
8D
100
AcDbEntity
  8
Vector Layer 1
 62
    18
420
        0
370
    30
  0
LINE
  5
92
330
70
100
AcDbEntity
  8
Vector Layer 1
 62
    18
420
        0
370
    30
100
AcDbLine
 10
6.618553087817497
 20
4.882089954039511
 30
0.0
 11
0.0000000000000089
 21
4.882089954039511
 31
0.0
  0
LINE
  5
93
330
70
100
AcDbEntity
  8
Vector Layer 1
 62
    18
420
        0
370
    30
100
AcDbLine
 10
6.618553087817497
 20
5.481733433840542
 30
0.0
 11
0.0000000000000089
 21
5.481733433840542
 31
0.0
  0
LINE
  5
94
330
70
100
AcDbEntity
  8
Vector Layer 1
 62
    18
420
        0
370
    30
100
AcDbLine
 10
6.618553087817497
 20
5.790159373947104
 30
0.0
 11
0.0000000000000089
 21
5.790159373947105
 31
0.0
  0
LINE
  5
95
330
70
100
AcDbEntity
  8
Vector Layer 1
 62
    18
420
        0
370
    30
100
AcDbLine
 10
6.618553087817497
 20
6.381936154253281
 30
0.0
 11
0.0000000000000071
 21
6.381936154253281
 31
0.0
  0
LINE
  5
96
330
70
100
AcDbEntity
  8
Vector Layer 1
 62
    18
420
        0
370
    30
100
AcDbLine
 10
6.618553087817497
 20
6.690362094359843
 30
0.0
 11
0.0000000000000071
 21
6.690362094359843
 31
0.0
  0
LINE
  5
97
330
70
100
AcDbEntity
  8
Vector Layer 1
 62
    18
420
        0
370
    30
100
AcDbLine
 10
6.618553087817497
 20
7.288827014934291
 30
0.0
 11
0.0000000000000089
 21
7.288827014934291
 31
0.0
  0
LINE
  5
98
330
70
100
AcDbEntity
  8
Vector Layer 1
 62
    18
420
        0
370
    30
100
AcDbLine
 10
6.618553087817497
 20
7.536808631748254
 30
0.0
 11
0.0000000000000089
 21
7.536808631748254
 31
0.0
  0
POLYLINE
  5
99
330
70
100
AcDbEntity
  8
Vector Layer 1
 62
    18
420
        0
370
    30
100
AcDb3dPolyline
 66
     1
 10
0.0
 20
0.0
 30
0.0
 70
     8
  0
VERTEX
  5
9A
330
99
100
AcDbEntity
  8
0
 62
    18
420
        0
100
AcDbVertex
100
AcDb3dPolylineVertex
 10
7.560705231082985
 20
7.584483121117244
 30
0.0
 70
    32
  0
VERTEX
  5
9B
330
99
100
AcDbEntity
  8
0
 62
    18
420
        0
100
AcDbVertex
100
AcDb3dPolylineVertex
 10
6.618553087817497
 20
7.584483121117244
 30
0.0
 70
    32
  0
VERTEX
  5
9C
330
99
100
AcDbEntity
  8
0
 62
    18
420
        0
100
AcDbVertex
100
AcDb3dPolylineVertex
 10
0.000000000000008
 20
7.584483121117244
 30
0.0
 70
    32
  0
SEQEND
  5
9D
330
99
100
AcDbEntity
  8
Vector Layer 1
 62
    18
420
        0
370
    30
  0
LINE
  5
9E
330
70
100
AcDbEntity
  8
Vector Layer 1
 62
    18
420
        0
370
    30
100
AcDbLine
 10
12.59611079867347
 20
8.419607916848242
 30
0.0
 11
0.0000000000000071
 21
8.419607916848242
 31
0.0
  0
LWPOLYLINE
  5
9F
330
70
100
AcDbEntity
  8
Vector Layer 1
 62
    18
420
        0
370
    30
100
AcDbPolyline
 90
       10
 70
     0
 43
0.0
 10
0.0000000000000089
 20
3.519915448832527
 10
12.59611079867347
 20
3.519915448832527
 10
12.59611079867347
 20
3.519915448832527
 10
12.59611079867347
 20
3.750192604803581
 10
12.59611079867347
 20
3.750192604803581
 10
12.59611079867347
 20
8.419607916848244
 10
12.59611079867347
 20
8.419607916848244
 10
12.59611079867347
 20
8.644915448832538
 10
12.59611079867347
 20
8.644915448832538
 10
0.000000000000008
 20
8.644915448832538
  0
POLYLINE
  5
A0
330
70
100
AcDbEntity
  8
Vector Layer 1
 62
    18
420
        0
370
    30
100
AcDb3dPolyline
 66
     1
 10
0.0
 20
0.0
 30
0.0
 70
     8
  0
VERTEX
  5
A1
330
A0
100
AcDbEntity
  8
0
 62
    18
420
        0
100
AcDbVertex
100
AcDb3dPolylineVertex
 10
0.0000000000000089
 20
3.519915448832527
 30
0.0
 70
    32
  0
VERTEX
  5
A2
330
A0
100
AcDbEntity
  8
0
 62
    18
420
        0
100
AcDbVertex
100
AcDb3dPolylineVertex
 10
0.0000000000000089
 20
3.750192604803581
 30
0.0
 70
    32
  0
VERTEX
  5
A3
330
A0
100
AcDbEntity
  8
0
 62
    18
420
        0
100
AcDbVertex
100
AcDb3dPolylineVertex
 10
0.0000000000000089
 20
4.586184864897528
 30
0.0
 70
    32
  0
VERTEX
  5
A4
330
A0
100
AcDbEntity
  8
0
 62
    18
420
        0
100
AcDbVertex
100
AcDb3dPolylineVertex
 10
0.0000000000000089
 20
4.633453629566878
 30
0.0
 70
    32
  0
VERTEX
  5
A5
330
A0
100
AcDbEntity
  8
0
 62
    18
420
        0
100
AcDbVertex
100
AcDb3dPolylineVertex
 10
0.0000000000000089
 20
4.882089954039511
 30
0.0
 70
    32
  0
VERTEX
  5
A6
330
A0
100
AcDbEntity
  8
0
 62
    18
420
        0
100
AcDbVertex
100
AcDb3dPolylineVertex
 10
0.0000000000000089
 20
5.481733433840542
 30
0.0
 70
    32
  0
VERTEX
  5
A7
330
A0
100
AcDbEntity
  8
0
 62
    18
420
        0
100
AcDbVertex
100
AcDb3dPolylineVertex
 10
0.0000000000000089
 20
5.790159373947103
 30
0.0
 70
    32
  0
VERTEX
  5
A8
330
A0
100
AcDbEntity
  8
0
 62
    18
420
        0
100
AcDbVertex
100
AcDb3dPolylineVertex
 10
0.0000000000000089
 20
6.381936154253281
 30
0.0
 70
    32
  0
VERTEX
  5
A9
330
A0
100
AcDbEntity
  8
0
 62
    18
420
        0
100
AcDbVertex
100
AcDb3dPolylineVertex
 10
0.0000000000000089
 20
6.690362094359842
 30
0.0
 70
    32
  0
VERTEX
  5
AA
330
A0
100
AcDbEntity
  8
0
 62
    18
420
        0
100
AcDbVertex
100
AcDb3dPolylineVertex
 10
0.0000000000000089
 20
7.288827014934291
 30
0.0
 70
    32
  0
VERTEX
  5
AB
330
A0
100
AcDbEntity
  8
0
 62
    18
420
        0
100
AcDbVertex
100
AcDb3dPolylineVertex
 10
0.0000000000000089
 20
7.536808631748254
 30
0.0
 70
    32
  0
VERTEX
  5
AC
330
A0
100
AcDbEntity
  8
0
 62
    18
420
        0
100
AcDbVertex
100
AcDb3dPolylineVertex
 10
0.0000000000000089
 20
7.584483121117244
 30
0.0
 70
    32
  0
VERTEX
  5
AD
330
A0
100
AcDbEntity
  8
0
 62
    18
420
        0
100
AcDbVertex
100
AcDb3dPolylineVertex
 10
0.0000000000000089
 20
8.41960791684824
 30
0.0
 70
    32
  0
VERTEX
  5
AE
330
A0
100
AcDbEntity
  8
0
 62
    18
420
        0
100
AcDbVertex
100
AcDb3dPolylineVertex
 10
0.0000000000000089
 20
8.644915448832538
 30
0.0
 70
    32
  0
SEQEND
  5
AF
330
A0
100
AcDbEntity
  8
Vector Layer 1
 62
    18
420
        0
370
    30
  0
LWPOLYLINE
  5
B0
330
70
100
AcDbEntity
  8
Vector Layer 1
 62
    18
420
        0
370
    30
100
AcDbPolyline
 90
        6
 70
     0
 43
0.0
 10
0.0112247823051996
 20
-4.158458890920802
 10
-12.58659569178534
 20
-4.158458890920802
 10
-12.58659569178534
 20
-4.158458890920802
 10
-12.58659569178307
 20
-4.829772111010549
 10
-12.58659569178307
 20
-4.829772111010549
 10
-12.58659569178306
 20
-4.833903791910334
210
0.0
220
0.0
230
-1.0
  0
LWPOLYLINE
  5
B1
330
70
100
AcDbEntity
  8
Vector Layer 1
 62
    18
420
        0
370
    30
100
AcDbPolyline
 90
        4
 70
     0
 43
0.0
 10
0.0112242338923085
 20
-4.298471447062477
 10
-12.58659569178534
 20
-4.298471447062477
 10
-12.58659569178534
 20
-4.298471447062477
 10
-12.58659569178306
 20
-4.829772111010549
210
0.0
220
0.0
230
-1.0
  0
LWPOLYLINE
  5
B2
330
70
100
AcDbEntity
  8
Vector Layer 1
 62
    18
420
        0
370
    30
100
AcDbPolyline
 90
      762
 70
     0
 43
0.0
 10
9.956401576588493
 20
-4.512114569279473
 10
9.956401576588493
 20
-3.183913035843928
 10
9.956401576588493
 20
-3.183913035843928
 10
9.956401576588493
 20
-3.150942572592721
 10
9.956401576588493
 20
-3.150942572592721
 10
9.956401576588493
 20
-3.149135101463415
 10
9.956401576588493
 20
-3.149135101463415
 10
9.8117741343837
 20
-3.149142145409493
 10
9.8117741343837
 20
-3.149142145409493
 10
9.670704820279468
 20
-3.149142145409493
 10
9.670704820279468
 20
-3.149142145409493
 10
9.495937940046491
 20
-3.149142145409493
 10
9.495937940046491
 20
-3.149142145409493
 10
9.355077927595242
 20
-3.149142145409493
 10
9.355077927595242
 20
-3.149142145409493
 10
9.333310555685963
 20
-3.149246715117404
 10
9.333310555685963
 20
-3.149246715117404
 10
9.319496646589703
 20
-3.150044895019521
 10
9.319496646589703
 20
-3.150044895019521
 10
9.306101340799392
 20
-3.151683896780619
 10
9.306101340799392
 20
-3.151683896780619
 10
9.291868828397198
 20
-3.154405519678988
 10
9.291868828397198
 20
-3.154405519678988
 10
9.277427014342002
 20
-3.15819183471001
 10
9.277427014342002
 20
-3.15819183471001
 10
9.262985200286831
 20
-3.163102152959179
 10
9.262985200286831
 20
-3.163102152959179
 10
9.248124782925703
 20
-3.169435452692405
 10
9.248124782925703
 20
-3.169435452692405
 10
9.235566683747279
 20
-3.175949011607019
 10
9.235566683747279
 20
-3.175949011607019
 10
9.222799282915904
 20
-3.183777784151014
 10
9.222799282915904
 20
-3.183777784151014
 10
9.210869088696393
 20
-3.192360737850673
 10
9.210869088696393
 20
-3.192360737850673
 10
9.198729592823921
 20
-3.202639678472032
 10
9.198729592823921
 20
-3.202639678472032
 10
9.18826451017524
 20
-3.213059240637564
 10
9.18826451017524
 20
-3.213059240637564
 10
9.179473840750359
 20
-3.223289239922039
 10
9.179473840750359
 20
-3.223289239922039
 10
9.170892472978444
 20
-3.234923419464108
 10
9.170892472978444
 20
-3.234923419464108
 10
9.163148311818414
 20
-3.247368571495349
 10
9.163148311818414
 20
-3.247368571495349
 10
9.156241357270266
 20
-3.26102630571883
 10
9.156241357270266
 20
-3.26102630571883
 10
9.15059021263999
 20
-3.275074213847829
 10
9.15059021263999
 20
-3.275074213847829
 10
9.146194877927552
 20
-3.289687030992052
 10
9.146194877927552
 20
-3.289687030992052
 10
9.14431116305078
 20
-3.298088853288489
 10
9.14431116305078
 20
-3.298088853288489
 10
9.142218146521056
 20
-3.301485091327527
 10
9.142218146521056
 20
-3.301485091327527
 10
9.005962770435214
 20
-3.301564560429
 10
9.005962770435214
 20
-3.301564560429
 10
8.86510275798396
 20
-3.301564560429
 10
8.86510275798396
 20
-3.301564560429
 10
8.769451902574999
 20
-3.301567080181005
 10
8.769451902574999
 20
-3.301567080181005
 10
8.756475200090649
 20
-3.302218823726614
 10
8.756475200090649
 20
-3.302218823726614
 10
8.744545005871135
 20
-3.303960941492556
 10
8.744545005871135
 20
-3.303960941492556
 10
8.731986906692725
 20
-3.307016237703572
 10
8.731986906692725
 20
-3.307016237703572
 10
8.720684617432162
 20
-3.310950830448315
 10
8.720684617432162
 20
-3.310950830448315
 10
8.710010233130489
 20
-3.31582645365074
 10
8.710010233130489
 20
-3.31582645365074
 10
8.70101026205263
 20
-3.320970042786803
 10
8.70101026205263
 20
-3.320970042786803
 10
8.691800989321791
 20
-3.327296849312949
 10
8.691800989321791
 20
-3.327296849312949
 10
8.68321962154987
 20
-3.334492388797161
 10
8.68321962154987
 20
-3.334492388797161
 10
8.675056857083905
 20
-3.342798848171824
 10
8.675056857083905
 20
-3.342798848171824
 10
8.668359204188744
 20
-3.351086021752362
 10
8.668359204188744
 20
-3.351086021752362
 10
8.661870852946556
 20
-3.361033081961519
 10
8.661870852946556
 20
-3.361033081961519
 10
8.656219708316278
 20
-3.372319971838803
 10
8.656219708316278
 20
-3.372319971838803
 10
8.652033675256795
 20
-3.38393990509074
 10
8.652033675256795
 20
-3.38393990509074
 10
8.647638340544361
 20
-3.402215811701929
 10
8.647638340544361
 20
-3.402215811701929
 10
8.644498815749741
 20
-3.411826436562591
 10
8.644498815749741
 20
-3.411826436562591
 10
8.639475576078371
 20
-3.422426887847528
 10
8.639475576078371
 20
-3.422426887847528
 10
8.633824431448097
 20
-3.431279018900047
 10
8.633824431448097
 20
-3.431279018900047
 10
8.626708175246996
 20
-3.440015580558057
 10
8.626708175246996
 20
-3.440015580558057
 10
8.618754712433993
 20
-3.447759408385659
 10
8.618754712433993
 20
-3.447759408385659
 10
8.609964043009094
 20
-3.454515493430065
 10
8.609964043009094
 20
-3.454515493430065
 10
8.601173373584199
 20
-3.459929035227288
 10
8.601173373584199
 20
-3.459929035227288
 10
8.591126894241462
 20
-3.46476317943529
 10
8.591126894241462
 20
-3.46476317943529
 10
8.580243208286836
 20
-3.468649315410856
 10
8.580243208286836
 20
-3.468649315410856
 10
8.568731617373281
 20
-3.471369678433208
 10
8.568731617373281
 20
-3.471369678433208
 10
8.557429328112725
 20
-3.472822412373545
 10
8.557429328112725
 20
-3.472822412373545
 10
8.543615419016465
 20
-3.473374238061097
 10
8.543615419016465
 20
-3.473374238061097
 10
8.541522402486709
 20
-3.507583554147267
 10
8.541522402486709
 20
-3.507583554147267
 10
8.541103799180778
 20
-3.508110521512224
 10
8.541103799180778
 20
-3.508110521512224
 10
8.529801509920197
 20
-3.505390788427852
 10
8.529801509920197
 20
-3.505390788427852
 10
8.518499220659618
 20
-3.503570897547351
 10
8.518499220659618
 20
-3.503570897547351
 10
8.505731819828215
 20
-3.502562172983113
 10
8.505731819828215
 20
-3.502562172983113
 10
8.493173720649812
 20
-3.502577582235712
 10
8.493173720649812
 20
-3.502577582235712
 10
8.480406319818417
 20
-3.50364886448898
 10
8.480406319818417
 20
-3.50364886448898
 10
8.46784822064
 20
-3.50571244446174
 10
8.46784822064
 20
-3.50571244446174
 10
8.456336629726443
 20
-3.508582199703515
 10
8.456336629726443
 20
-3.508582199703515
 10
8.445243642118843
 20
-3.512232448126653
 10
8.445243642118843
 20
-3.512232448126653
 10
8.442732022283156
 20
-3.533019045319928
 10
8.442732022283156
 20
-3.533019045319928
 10
8.438964592529632
 20
-3.586350080923527
 10
8.438964592529632
 20
-3.586350080923527
 10
8.436871575999902
 20
-3.601278690832567
 10
8.436871575999902
 20
-3.601278690832567
 10
8.39898797681168
 20
-3.601935473882175
 10
8.39898797681168
 20
-3.601935473882175
 10
8.359011361093685
 20
-3.603339896423627
 10
8.359011361093685
 20
-3.603339896423627
 10
8.334732369348728
 20
-3.604747856309238
 10
8.334732369348728
 20
-3.604747856309238
 10
8.318406840416781
 20
-3.606016066872496
 10
8.318406840416781
 20
-3.606016066872496
 10
8.301453406525896
 20
-3.607512072707717
 10
8.301453406525896
 20
-3.607512072707717
 10
8.270895365191719
 20
-3.609798408448437
 10
8.270895365191719
 20
-3.609798408448437
 10
8.246616373446745
 20
-3.611506945673333
 10
8.246616373446745
 20
-3.611506945673333
 10
8.219616460213124
 20
-3.613369769251337
 10
8.219616460213124
 20
-3.613369769251337
 10
8.186337497390297
 20
-3.615423415586407
 10
8.186337497390297
 20
-3.615423415586407
 10
8.153895741179351
 20
-3.617423420277982
 10
8.153895741179351
 20
-3.617423420277982
 10
8.148035294896093
 20
-3.617803951286434
 10
8.148035294896093
 20
-3.617803951286434
 10
8.145732976713381
 20
-3.599128615526807
 10
8.145732976713381
 20
-3.599128615526807
 10
8.141756245306881
 20
-3.537882651243598
 10
8.141756245306881
 20
-3.537882651243598
 10
8.139663228777127
 20
-3.521095385038715
 10
8.139663228777127
 20
-3.521095385038715
 10
8.130244654393312
 20
-3.518169710685282
 10
8.130244654393312
 20
-3.518169710685282
 10
8.117686555214881
 20
-3.515394688427268
 10
8.117686555214881
 20
-3.515394688427268
 10
8.104500551077522
 20
-3.513369583129258
 10
8.104500551077522
 20
-3.513369583129258
 10
8.089430832063413
 20
-3.512184863579305
 10
8.089430832063413
 20
-3.512184863579305
 10
8.075826224620133
 20
-3.512120173792446
 10
8.075826224620133
 20
-3.512120173792446
 10
8.062849522135751
 20
-3.512926736715614
 10
8.062849522135751
 20
-3.512926736715614
 10
8.043803071715121
 20
-3.515243261023549
 10
8.043803071715121
 20
-3.515243261023549
 10
8.031872877495629
 20
-3.515935465971442
 10
8.031872877495629
 20
-3.515935465971442
 10
8.019733381623138
 20
-3.515738053093754
 10
8.019733381623138
 20
-3.515738053093754
 10
7.993152071695472
 20
-3.513071089431036
 10
7.993152071695472
 20
-3.513071089431036
 10
7.977873051028384
 20
-3.512503660663814
 10
7.977873051028384
 20
-3.512503660663814
 10
7.962803332014257
 20
-3.512874258034587
 10
7.962803332014257
 20
-3.512874258034587
 10
7.950035931182856
 20
-3.513945588744622
 10
7.950035931182856
 20
-3.513945588744622
 10
7.933919703903886
 20
-3.516267734037788
 10
7.933919703903886
 20
-3.516267734037788
 10
7.920524398113553
 20
-3.518468495124112
 10
7.920524398113553
 20
-3.518468495124112
 10
7.90859420389404
 20
-3.519493501162808
 10
7.90859420389404
 20
-3.519493501162808
 10
7.872175716276592
 20
-3.520575395448526
 10
7.872175716276592
 20
-3.520575395448526
 10
7.834501418741324
 20
-3.521668144050541
 10
7.834501418741324
 20
-3.521668144050541
 10
7.796827121206033
 20
-3.522760892652575
 10
7.796827121206033
 20
-3.522760892652575
 10
7.761036538547512
 20
-3.5237943301691
 10
7.761036538547512
 20
-3.5237943301691
 10
7.723571542665201
 20
-3.524883977537882
 10
7.723571542665201
 20
-3.524883977537882
 10
7.685897245129914
 20
-3.525976726139911
 10
7.685897245129914
 20
-3.525976726139911
 10
7.650106662471392
 20
-3.527010163656439
 10
7.650106662471392
 20
-3.527010163656439
 10
7.60092077402255
 20
-3.528461976918158
 10
7.60092077402255
 20
-3.528461976918158
 10
7.564292984752123
 20
-3.529507867824364
 10
7.564292984752123
 20
-3.529507867824364
 10
7.526827988869809
 20
-3.53059751519316
 10
7.526827988869809
 20
-3.53059751519316
 10
7.489153691334519
 20
-3.531690312251956
 10
7.489153691334519
 20
-3.531690312251956
 10
7.451479393799228
 20
-3.532783060853971
 10
7.451479393799228
 20
-3.532783060853971
 10
7.404177220227153
 20
-3.53415555038453
 10
7.404177220227153
 20
-3.53415555038453
 10
7.365665716079975
 20
-3.535260800832995
 10
7.365665716079975
 20
-3.535260800832995
 10
7.309572873082982
 20
-3.536908524812561
 10
7.309572873082982
 20
-3.536908524812561
 10
7.267712542488234
 20
-3.538115728303408
 10
7.267712542488234
 20
-3.538115728303408
 10
7.229619641646987
 20
-3.539214679371881
 10
7.229619641646987
 20
-3.539214679371881
 10
7.193829058988472
 20
-3.540248165345177
 10
7.193829058988472
 20
-3.540248165345177
 10
7.156364063106159
 20
-3.541337812713966
 10
7.156364063106159
 20
-3.541337812713966
 10
7.119526972182761
 20
-3.542393588801099
 10
7.119526972182761
 20
-3.542393588801099
 10
7.107596777963266
 20
-3.542143842612688
 10
7.107596777963266
 20
-3.542143842612688
 10
7.082480579606396
 20
-3.539583629212505
 10
7.082480579606396
 20
-3.539583629212505
 10
7.066782955633357
 20
-3.538944629797188
 10
7.066782955633357
 20
-3.538944629797188
 10
7.051922538272229
 20
-3.539276946320297
 10
7.051922538272229
 20
-3.539276946320297
 10
7.036852819258114
 20
-3.540569239897835
 10
7.036852819258114
 20
-3.540569239897835
 10
7.020945893632104
 20
-3.542935577764497
 10
7.020945893632104
 20
-3.542935577764497
 10
7.008178492800705
 20
-3.545001435205406
 10
7.008178492800705
 20
-3.545001435205406
 10
6.996248298581188
 20
-3.545977548363985
 10
6.996248298581188
 20
-3.545977548363985
 10
6.947899616744226
 20
-3.547393503616504
 10
6.947899616744226
 20
-3.547393503616504
 10
6.909388112597049
 20
-3.548498754064976
 10
6.909388112597049
 20
-3.548498754064976
 10
6.85141155472331
 20
-3.55020094345311
 10
6.85141155472331
 20
-3.55020094345311
 10
6.81143493900531
 20
-3.551353681535379
 10
6.81143493900531
 20
-3.551353681535379
 10
6.773551339817049
 20
-3.552449579827397
 10
6.773551339817049
 20
-3.552449579827397
 10
6.737551455505555
 20
-3.55348611857716
 10
6.737551455505555
 20
-3.55348611857716
 10
6.700086459623237
 20
-3.554575765945951
 10
6.700086459623237
 20
-3.554575765945951
 10
6.662412162087959
 20
-3.555668514547972
 10
6.662412162087959
 20
-3.555668514547972
 10
6.62662157942942
 20
-3.556701952064498
 10
6.62662157942942
 20
-3.556701952064498
 10
6.589156583547118
 20
-3.55779159943329
 10
6.589156583547118
 20
-3.55779159943329
 10
6.55148228601184
 20
-3.558884348035307
 10
6.55148228601184
 20
-3.558884348035307
 10
6.515691703353311
 20
-3.559917785551839
 10
6.515691703353311
 20
-3.559917785551839
 10
6.478226707470998
 20
-3.561007432920629
 10
6.478226707470998
 20
-3.561007432920629
 10
6.440552409935718
 20
-3.562100181522649
 10
6.440552409935718
 20
-3.562100181522649
 10
6.379645628920336
 20
-3.563861875823346
 10
6.379645628920336
 20
-3.563861875823346
 10
6.342389934691
 20
-3.564949439551064
 10
6.342389934691
 20
-3.564949439551064
 10
6.292785442936207
 20
-3.566396261765569
 10
6.292785442936207
 20
-3.566396261765569
 10
6.256157653665792
 20
-3.567442201128541
 10
6.256157653665792
 20
-3.567442201128541
 10
6.218692657783479
 20
-3.568531848497334
 10
6.218692657783479
 20
-3.568531848497334
 10
6.18101836024819
 20
-3.569624597099354
 10
6.18101836024819
 20
-3.569624597099354
 10
6.145227777589666
 20
-3.570658034615881
 10
6.145227777589666
 20
-3.570658034615881
 10
6.116972054438196
 20
-3.5714148324371
 10
6.116972054438196
 20
-3.5714148324371
 10
6.105041860218697
 20
-3.570987686016689
 10
6.105041860218697
 20
-3.570987686016689
 10
6.083274488309411
 20
-3.568442833412328
 10
6.083274488309411
 20
-3.568442833412328
 10
6.067158261030427
 20
-3.567332058892173
 10
6.067158261030427
 20
-3.567332058892173
 10
6.051251335404423
 20
-3.567198415122742
 10
6.051251335404423
 20
-3.567198415122742
 10
6.034507203166517
 20
-3.568160621188563
 10
6.034507203166517
 20
-3.568160621188563
 10
6.010646814727503
 20
-3.570958611955168
 10
6.010646814727503
 20
-3.570958611955168
 10
5.997251508937183
 20
-3.571741479518216
 10
5.997251508937183
 20
-3.571741479518216
 10
5.98385620314685
 20
-3.571607787292017
 10
5.98385620314685
 20
-3.571607787292017
 10
5.963553942808398
 20
-3.570290296194495
 10
5.963553942808398
 20
-3.570290296194495
 10
5.948065620488335
 20
-3.570084548752507
 10
5.948065620488335
 20
-3.570084548752507
 10
5.932367996515293
 20
-3.570841879598188
 10
5.932367996515293
 20
-3.570841879598188
 10
5.916042467583332
 20
-3.572630758146404
 10
5.916042467583332
 20
-3.572630758146404
 10
5.892182079144319
 20
-3.576823577014171
 10
5.892182079144319
 20
-3.576823577014171
 10
5.880251884924816
 20
-3.578192190003195
 10
5.880251884924816
 20
-3.578192190003195
 10
5.848647335325773
 20
-3.579265846638155
 10
5.848647335325773
 20
-3.579265846638155
 10
5.788787062575263
 20
-3.581013003908086
 10
5.788787062575263
 20
-3.581013003908086
 10
5.750066256775107
 20
-3.582121355589787
 10
5.750066256775107
 20
-3.582121355589787
 10
5.702554781550046
 20
-3.583505765485563
 10
5.702554781550046
 20
-3.583505765485563
 10
5.664043277402868
 20
-3.584611015934039
 10
5.664043277402868
 20
-3.584611015934039
 10
5.626368979867575
 20
-3.585703764536056
 10
5.626368979867575
 20
-3.585703764536056
 10
5.56692731042301
 20
-3.587444622426002
 10
5.56692731042301
 20
-3.587444622426002
 10
5.528206504622858
 20
-3.588553022564471
 10
5.528206504622858
 20
-3.588553022564471
 10
5.471904359972908
 20
-3.59020486536941
 10
5.471904359972908
 20
-3.59020486536941
 10
5.418113835158636
 20
-3.591756354205363
 10
5.418113835158636
 20
-3.591756354205363
 10
5.359090769020014
 20
-3.593474970438251
 10
5.359090769020014
 20
-3.593474970438251
 10
5.319114153302017
 20
-3.594626884755448
 10
5.319114153302017
 20
-3.594626884755448
 10
5.281230554113761
 20
-3.595722783047468
 10
5.281230554113761
 20
-3.595722783047468
 10
5.220323773098376
 20
-3.597483459756014
 10
5.220323773098376
 20
-3.597483459756014
 10
5.17113788464954
 20
-3.598926114688359
 10
5.17113788464954
 20
-3.598926114688359
 10
5.15690537224732
 20
-3.598850376758106
 10
5.15690537224732
 20
-3.598850376758106
 10
5.144556574721863
 20
-3.597662168320785
 10
5.144556574721863
 20
-3.597662168320785
 10
5.126138029260162
 20
-3.594965500658549
 10
5.126138029260162
 20
-3.594965500658549
 10
5.109603198675234
 20
-3.593402915222455
 10
5.109603198675234
 20
-3.593402915222455
 10
5.092859066437329
 20
-3.592774430926063
 10
5.092859066437329
 20
-3.592774430926063
 10
5.07716144246429
 20
-3.593011432984163
 10
5.07716144246429
 20
-3.593011432984163
 10
5.061463818491257
 20
-3.594108930349576
 10
5.061463818491257
 20
-3.594108930349576
 10
4.998464020946137
 20
-3.601093295233645
 10
4.998464020946137
 20
-3.601093295233645
 10
4.963719946552484
 20
-3.604683554176519
 10
4.963719946552484
 20
-3.604683554176519
 10
4.924580537446388
 20
-3.606070968391992
 10
4.924580537446388
 20
-3.606070968391992
 10
4.865348169654786
 20
-3.607797676905328
 10
4.865348169654786
 20
-3.607797676905328
 10
4.825999458895712
 20
-3.608940723633765
 10
4.825999458895712
 20
-3.608940723633765
 10
4.770953124163609
 20
-3.610522304123386
 10
4.770953124163609
 20
-3.610522304123386
 10
4.742278797706189
 20
-3.611322276925954
 10
4.742278797706189
 20
-3.611322276925954
 10
4.729720698527764
 20
-3.610926191294582
 10
4.729720698527764
 20
-3.610926191294582
 10
4.700209165458451
 20
-3.607566683486596
 10
4.700209165458451
 20
-3.607566683486596
 10
4.683883636526502
 20
-3.606467974701962
 10
4.683883636526502
 20
-3.606467974701962
 10
4.666302297676697
 20
-3.606410747257551
 10
4.666302297676697
 20
-3.606410747257551
 10
4.649767467091759
 20
-3.607382305479821
 10
4.649767467091759
 20
-3.607382305479821
 10
4.634697748077654
 20
-3.609139590214529
 10
4.634697748077654
 20
-3.609139590214529
 10
4.61774431418677
 20
-3.612126513924206
 10
4.61774431418677
 20
-3.612126513924206
 10
4.605814119967265
 20
-3.614315451558865
 10
4.605814119967265
 20
-3.614315451558865
 10
4.592000210870992
 20
-3.615683531523421
 10
4.592000210870992
 20
-3.615683531523421
 10
4.543232925728096
 20
-3.617128318553609
 10
4.543232925728096
 20
-3.617128318553609
 10
4.480651731488919
 20
-3.618947288755497
 10
4.480651731488919
 20
-3.618947288755497
 10
4.42141936369733
 20
-3.620669490789302
 10
4.42141936369733
 20
-3.620669490789302
 10
4.381442747979333
 20
-3.621820968995582
 10
4.381442747979333
 20
-3.621820968995582
 10
4.343349847138098
 20
-3.62291996852082
 10
4.343349847138098
 20
-3.62291996852082
 10
4.282652367775693
 20
-3.624677640909676
 10
4.282652367775693
 20
-3.624677640909676
 10
4.233466479326848
 20
-3.626120150471713
 10
4.233466479326848
 20
-3.626120150471713
 10
4.172978301617416
 20
-3.627876708354879
 10
4.172978301617416
 20
-3.627876708354879
 10
4.122536603250724
 20
-3.629335983959058
 10
4.122536603250724
 20
-3.629335983959058
 10
4.062048425541295
 20
-3.631092493385452
 10
4.062048425541295
 20
-3.631092493385452
 10
4.023327619741138
 20
-3.632200893523917
 10
4.023327619741138
 20
-3.632200893523917
 10
3.999676532955099
 20
-3.632821963934638
 10
3.999676532955099
 20
-3.632821963934638
 10
3.987746338735588
 20
-3.632291265398456
 10
3.987746338735588
 20
-3.632291265398456
 10
3.962211537072785
 20
-3.629433430521901
 10
3.962211537072785
 20
-3.629433430521901
 10
3.946723214752724
 20
-3.628493417656366
 10
3.946723214752724
 20
-3.628493417656366
 10
3.930816289126706
 20
-3.628478444514688
 10
3.930816289126706
 20
-3.628478444514688
 10
3.915118665153679
 20
-3.629419717256216
 10
3.915118665153679
 20
-3.629419717256216
 10
3.897955929609818
 20
-3.631551912014149
 10
3.897955929609818
 20
-3.631551912014149
 10
3.876188557700545
 20
-3.635454668661532
 10
3.876188557700545
 20
-3.635454668661532
 10
3.86363045852212
 20
-3.636759318715229
 10
3.86363045852212
 20
-3.636759318715229
 10
3.82679336759873
 20
-3.637900087975518
 10
3.82679336759873
 20
-3.637900087975518
 10
3.777188875843932
 20
-3.639358152160463
 10
3.777188875843932
 20
-3.639358152160463
 10
3.72423555764156
 20
-3.640878531750586
 10
3.72423555764156
 20
-3.640878531750586
 10
3.678607797293264
 20
-3.642202467598416
 10
3.678607797293264
 20
-3.642202467598416
 10
3.640305594799063
 20
-3.643304568356889
 10
3.640305594799063
 20
-3.643304568356889
 10
3.592794119574
 20
-3.644700171766357
 10
3.592794119574
 20
-3.644700171766357
 10
3.554491917079801
 20
-3.645802320981597
 10
3.554491917079801
 20
-3.645802320981597
 10
3.502166503836348
 20
-3.647318581746344
 10
3.502166503836348
 20
-3.647318581746344
 10
3.45674804514119
 20
-3.648645328086778
 10
3.45674804514119
 20
-3.648645328086778
 10
3.408608664957375
 20
-3.650039090139016
 10
3.408608664957375
 20
-3.650039090139016
 10
3.370097160810326
 20
-3.651144340587492
 10
3.370097160810326
 20
-3.651144340587492
 10
3.332422863275168
 20
-3.652237089189511
 10
3.332422863275168
 20
-3.652237089189511
 10
3.294748565740011
 20
-3.653329886248296
 10
3.294748565740011
 20
-3.653329886248296
 10
3.247446392168091
 20
-3.654702327322083
 10
3.247446392168091
 20
-3.654702327322083
 10
3.211446507856725
 20
-3.655665211782673
 10
3.211446507856725
 20
-3.655665211782673
 10
3.189051230988602
 20
-3.655605997610721
 10
3.189051230988602
 20
-3.655605997610721
 10
3.176283830157243
 20
-3.65634787074703
 10
3.176283830157243
 20
-3.65634787074703
 10
3.163307127672914
 20
-3.658109807331571
 10
3.163307127672914
 20
-3.658109807331571
 10
3.150539726841552
 20
-3.660822659554712
 10
3.150539726841552
 20
-3.660822659554712
 10
3.135051404521545
 20
-3.665361217470652
 10
3.135051404521545
 20
-3.665361217470652
 10
3.133167689644785
 20
-3.666351431549069
 10
3.133167689644785
 20
-3.666351431549069
 10
3.130656069809111
 20
-3.681590019410618
 10
3.130656069809111
 20
-3.681590019410618
 10
3.126888640055593
 20
-3.719428408311798
 10
3.126888640055593
 20
-3.719428408311798
 10
3.124795623525862
 20
-3.730984039431004
 10
3.124795623525862
 20
-3.730984039431004
 10
3.122284003690186
 20
-3.732784499147062
 10
3.122284003690186
 20
-3.732784499147062
 10
3.11914447889559
 20
-3.733452621080663
 10
3.11914447889559
 20
-3.733452621080663
 10
3.082098086319349
 20
-3.735640347296081
 10
3.082098086319349
 20
-3.735640347296081
 10
3.045679598702034
 20
-3.737773511189391
 10
3.045679598702034
 20
-3.737773511189391
 10
3.003819268107415
 20
-3.740158165714817
 10
3.003819268107415
 20
-3.740158165714817
 10
2.95191245817009
 20
-3.743031264473659
 10
2.95191245817009
 20
-3.743031264473659
 10
2.91465676394088
 20
-3.745131913874851
 10
2.91465676394088
 20
-3.745131913874851
 10
2.879494086241402
 20
-3.747013877876678
 10
2.879494086241402
 20
-3.747013877876678
 10
2.838889565564619
 20
-3.748787298715519
 10
2.838889565564619
 20
-3.748787298715519
 10
2.8056106027419
 20
-3.74988813959799
 10
2.8056106027419
 20
-3.74988813959799
 10
2.778610689508372
 20
-3.750589309048183
 10
2.778610689508372
 20
-3.750589309048183
 10
2.746796838256458
 20
-3.751151310657255
 10
2.746796838256458
 20
-3.751151310657255
 10
2.690494693606696
 20
-3.751494723780514
 10
2.690494693606696
 20
-3.751494723780514
 10
2.63921578862829
 20
-3.751054930143335
 10
2.63921578862829
 20
-3.751054930143335
 10
2.591076408444478
 20
-3.749993387700675
 10
2.591076408444478
 20
-3.749993387700675
 10
2.570355544800144
 20
-3.74934392162321
 10
2.570355544800144
 20
-3.74934392162321
 10
2.567843924964468
 20
-3.735139595043269
 10
2.567843924964468
 20
-3.735139595043269
 10
2.563867193557976
 20
-3.693509706236763
 10
2.563867193557976
 20
-3.693509706236763
 10
2.561774177028248
 20
-3.682499310684484
 10
2.561774177028248
 20
-3.682499310684484
 10
2.549216077849862
 20
-3.679229302529195
 10
2.549216077849862
 20
-3.679229302529195
 10
2.536657978671474
 20
-3.677083249135269
 10
2.536657978671474
 20
-3.677083249135269
 10
2.524309181146062
 20
-3.675946114132666
 10
2.524309181146062
 20
-3.675946114132666
 10
2.509867367090921
 20
-3.675867032685355
 10
2.509867367090921
 20
-3.675867032685355
 10
2.497309267912534
 20
-3.676868246450378
 10
2.497309267912534
 20
-3.676868246450378
 10
2.485379073693069
 20
-3.678737514778675
 10
2.485379073693069
 20
-3.678737514778675
 10
2.471774466249815
 20
-3.681993034359983
 10
2.471774466249815
 20
-3.681993034359983
 10
2.461518685254137
 20
-3.685328604523991
 10
2.461518685254137
 20
-3.685328604523991
 10
2.45900706541846
 20
-3.700236959503512
 10
2.45900706541846
 20
-3.700236959503512
 10
2.455030334011967
 20
-3.742101669813511
 10
2.455030334011967
 20
-3.742101669813511
 10
2.453146619135211
 20
-3.752133287084911
 10
2.453146619135211
 20
-3.752133287084911
 10
2.452518714176292
 20
-3.752789488653295
 10
2.452518714176292
 20
-3.752789488653295
 10
2.398309586056264
 20
-3.757288893499724
 10
2.398309586056264
 20
-3.757288893499724
 10
2.342007441406502
 20
-3.760959106111764
 10
2.342007441406502
 20
-3.760959106111764
 10
2.297635490976205
 20
-3.763124445299816
 10
2.297635490976205
 20
-3.763124445299816
 10
2.257868176911319
 20
-3.764552950855554
 10
2.257868176911319
 20
-3.764552950855554
 10
2.207845081850749
 20
-3.765606740215149
 10
2.207845081850749
 20
-3.765606740215149
 10
2.140031346287468
 20
-3.76616874182423
 10
2.140031346287468
 20
-3.76616874182423
 10
2.08058967684311
 20
-3.766668282657815
 10
2.08058967684311
 20
-3.766668282657815
 10
2.014659656156585
 20
-3.767213082113824
 10
2.014659656156585
 20
-3.767213082113824
 10
1.959822623077634
 20
-3.767761031259829
 10
1.959822623077634
 20
-3.767761031259829
 10
1.92152042058356
 20
-3.768123463664996
 10
1.92152042058356
 20
-3.768123463664996
 10
1.918380895788962
 20
-3.766923674059833
 10
1.918380895788962
 20
-3.766923674059833
 10
1.916915784218153
 20
-3.765471109718194
 10
1.916915784218153
 20
-3.765471109718194
 10
1.914194862729502
 20
-3.757707123874608
 10
1.914194862729502
 20
-3.757707123874608
 10
1.911473941240849
 20
-3.742877220404403
 10
1.911473941240849
 20
-3.742877220404403
 10
1.907915813140307
 20
-3.716259917087951
 10
1.907915813140307
 20
-3.716259917087951
 10
1.906241399916524
 20
-3.70705468155833
 10
1.906241399916524
 20
-3.70705468155833
 10
1.90456698669274
 20
-3.70173703570735
 10
1.90456698669274
 20
-3.70173703570735
 10
1.888032156107867
 20
-3.697536948324203
 10
1.888032156107867
 20
-3.697536948324203
 10
1.87359034205272
 20
-3.694874491141024
 10
1.87359034205272
 20
-3.694874491141024
 10
1.859357829650551
 20
-3.693328720203843
 10
1.859357829650551
 20
-3.693328720203843
 10
1.845334618901354
 20
-3.692829906221789
 10
1.845334618901354
 20
-3.692829906221789
 10
1.832357916417021
 20
-3.693233260368534
 10
1.832357916417021
 20
-3.693233260368534
 10
1.81519518087323
 20
-3.694993064855235
 10
1.81519518087323
 20
-3.694993064855235
 10
1.801171970124033
 20
-3.696497066057367
 10
1.801171970124033
 20
-3.696497066057367
 10
1.743195412250487
 20
-3.698340846125081
 10
1.743195412250487
 20
-3.698340846125081
 10
1.667428213874227
 20
-3.700525325736967
 10
1.667428213874227
 20
-3.700525325736967
 10
1.610498164265545
 20
-3.702190736437282
 10
1.610498164265545
 20
-3.702190736437282
 10
1.568428532017954
 20
-3.703403124802432
 10
1.568428532017954
 20
-3.703403124802432
 10
1.515893817121707
 20
-3.704923552849334
 10
1.515893817121707
 20
-3.704923552849334
 10
1.463568403878435
 20
-3.706453429966214
 10
1.463568403878435
 20
-3.706453429966214
 10
1.421917374936789
 20
-3.70764924611631
 10
1.421917374936789
 20
-3.70764924611631
 10
1.383824474095688
 20
-3.708748294098316
 10
1.383824474095688
 20
-3.708748294098316
 10
1.346150176560531
 20
-3.709841042700341
 10
1.346150176560531
 20
-3.709841042700341
 10
1.28712711042212
 20
-3.711563293190913
 10
1.28712711042212
 20
-3.711563293190913
 10
1.273941106284816
 20
-3.711194634090907
 10
1.273941106284816
 20
-3.711194634090907
 10
1.254894655864262
 20
-3.709413653996072
 10
1.254894655864262
 20
-3.709413653996072
 10
1.239406333544254
 20
-3.708908879831423
 10
1.239406333544254
 20
-3.708908879831423
 10
1.225383122795057
 20
-3.70937561543226
 10
1.225383122795057
 20
-3.70937561543226
 10
1.209685498822074
 20
-3.710937570930352
 10
1.209685498822074
 20
-3.710937570930352
 10
1.192104159972335
 20
-3.713624111127826
 10
1.192104159972335
 20
-3.713624111127826
 10
1.179127457488002
 20
-3.714684054497104
 10
1.179127457488002
 20
-3.714684054497104
 10
1.150243829377717
 20
-3.715532920179791
 10
1.150243829377717
 20
-3.715532920179791
 10
1.095616097951739
 20
-3.717114936780317
 10
1.095616097951739
 20
-3.717114936780317
 10
1.05166275082739
 20
-3.718386393947121
 10
1.05166275082739
 20
-3.718386393947121
 10
1.001848957419795
 20
-3.719847559365297
 10
1.001848957419795
 20
-3.719847559365297
 10
0.9535002755830117
 20
-3.721235651975536
 10
0.9535002755830117
 20
-3.721235651975536
 10
0.9151980730889357
 20
-3.722337801190778
 10
0.9151980730889357
 20
-3.722337801190778
 10
0.8570122135624162
 20
-3.724046289958897
 10
0.8570122135624162
 20
-3.724046289958897
 10
0.8427797011602457
 20
-3.724140732202054
 10
0.8427797011602457
 20
-3.724140732202054
 10
0.8241518540456404
 20
-3.723030490706352
 10
0.8241518540456404
 20
-3.723030490706352
 10
0.8107565482553624
 20
-3.723007231457146
 10
0.8107565482553624
 20
-3.723007231457146
 10
0.7969426391591381
 20
-3.723937698339145
 10
0.7969426391591381
 20
-3.723937698339145
 10
0.7839659366748068
 20
-3.725708696339531
 10
0.7839659366748068
 20
-3.725708696339531
 10
0.7703613292315557
 20
-3.728539250055031
 10
0.7703613292315557
 20
-3.728539250055031
 10
0.7565474201353315
 20
-3.73246172860748
 10
0.7565474201353315
 20
-3.73246172860748
 10
0.7536171969937086
 20
-3.733423353192073
 10
0.7536171969937086
 20
-3.733423353192073
 10
0.751524180463977
 20
-3.700617102857809
 10
0.751524180463977
 20
-3.700617102857809
 10
0.7511055771580308
 20
-3.699365319139304
 10
0.7511055771580308
 20
-3.699365319139304
 10
0.7182452176412565
 20
-3.700310226138523
 10
0.7182452176412565
 20
-3.700310226138523
 10
0.6811988250650188
 20
-3.701374918271186
 10
0.6811988250650188
 20
-3.701374918271186
 10
0.64540824240662
 20
-3.70241460671094
 10
0.64540824240662
 20
-3.70241460671094
 10
0.6079432465244362
 20
-3.703498003156511
 10
0.6079432465244362
 20
-3.703498003156511
 10
0.5857572713092884
 20
-3.704188948228397
 10
0.5857572713092884
 20
-3.704188948228397
 10
0.5744549820487423
 20
-3.70528978911087
 10
0.5744549820487423
 20
-3.70528978911087
 10
0.5610596762584641
 20
-3.707707151955488
 10
0.5610596762584641
 20
-3.707707151955488
 10
0.5493387836919702
 20
-3.710951720306955
 10
0.5493387836919702
 20
-3.710951720306955
 10
0.5382457960843971
 20
-3.715066523776322
 10
0.5382457960843971
 20
-3.715066523776322
 10
0.5267342051708763
 20
-3.720465480086008
 10
0.5267342051708763
 20
-3.720465480086008
 10
0.5158505192162766
 20
-3.726888570212547
 10
0.5158505192162766
 20
-3.726888570212547
 10
0.5058040398735678
 20
-3.734127526961948
 10
0.5058040398735678
 20
-3.734127526961948
 10
0.4965947671427518
 20
-3.742190830268815
 10
0.4965947671427518
 20
-3.742190830268815
 10
0.4886413043297746
 20
-3.750562027887128
 10
0.4886413043297746
 20
-3.750562027887128
 10
0.4808971431697702
 20
-3.760448468678035
 10
0.4808971431697702
 20
-3.760448468678035
 10
0.4744087919276041
 20
-3.770735501579837
 10
0.4744087919276041
 20
-3.770735501579837
 10
0.4685483456443569
 20
-3.782634206624913
 10
0.4685483456443569
 20
-3.782634206624913
 10
0.4643623125848953
 20
-3.794200304406279
 10
0.4643623125848953
 20
-3.794200304406279
 10
0.4614320894432724
 20
-3.80668778342541
 10
0.4614320894432724
 20
-3.80668778342541
 10
0.4585018663016495
 20
-3.826822830900151
 10
0.4585018663016495
 20
-3.826822830900151
 10
0.4578739613427301
 20
-3.827362493938622
 10
0.4578739613427301
 20
-3.827362493938622
 10
0.3538510398151024
 20
-3.827362493938622
 10
0.3538510398151024
 20
-3.827362493938622
 10
0.3509208166734801
 20
-3.84378400844966
 10
0.3509208166734801
 20
-3.84378400844966
 10
0.3492464034496954
 20
-3.854732330880609
 10
0.3492464034496954
 20
-3.854732330880609
 10
0.3454789736961788
 20
-3.868413930062913
 10
0.3454789736961788
 20
-3.868413930062913
 10
0.3404557340248253
 20
-3.881093976282821
 10
0.3404557340248253
 20
-3.881093976282821
 10
0.3348045893945519
 20
-3.89217196902811
 10
0.3348045893945519
 20
-3.89217196902811
 10
0.3278976348464397
 20
-3.903008671291228
 10
0.3278976348464397
 20
-3.903008671291228
 10
0.3201534736864351
 20
-3.913100205357738
 10
0.3201534736864351
 20
-3.913100205357738
 10
0.3109442009556196
 20
-3.92290989062624
 10
0.3109442009556196
 20
-3.92290989062624
 10
0.3015256265718302
 20
-3.931366565985399
 10
0.3015256265718302
 20
-3.931366565985399
 10
0.290641940617229
 20
-3.939495358615836
 10
0.290641940617229
 20
-3.939495358615836
 10
0.2793396513566825
 20
-3.946489875193046
 10
0.2793396513566825
 20
-3.946489875193046
 10
0.26699085383127
 20
-3.952717296885587
 10
0.26699085383127
 20
-3.952717296885587
 10
0.2552699612647772
 20
-3.957419057200168
 10
0.2552699612647772
 20
-3.957419057200168
 10
0.2433397670453103
 20
-3.961171646319828
 10
0.2433397670453103
 20
-3.961171646319828
 10
0.2314095728258445
 20
-3.963943833856847
 10
0.2314095728258445
 20
-3.963943833856847
 10
0.2188514736474592
 20
-3.965900130542614
 10
0.2188514736474592
 20
-3.965900130542614
 10
0.2060840728161005
 20
-3.966863548027664
 10
0.2060840728161005
 20
-3.966863548027664
 10
0.2010608331447463
 20
-3.966983163562408
 10
0.2010608331447463
 20
-3.966983163562408
 10
0.1989678166150149
 20
-3.986915928254163
 10
0.1989678166150149
 20
-3.986915928254163
 10
0.1983399116560962
 20
-3.987558973809708
 10
0.1983399116560962
 20
-3.987558973809708
 10
0.0635496471414253
 20
-3.987558973809708
 10
0.0635496471414253
 20
-3.987558973809708
 10
0.0121942692855145
 20
-3.987422379712363
 10
0.0121942692855145
 20
-3.987422379712363
 10
0.0122730326787434
 20
-4.157055220644844
 10
0.0122730326787434
 20
-4.157055220644844
 10
0.012270742163017
 20
-4.162054828213502
 10
0.012270742163017
 20
-4.162054828213502
 10
0.0112242338923079
 20
-4.512114569279471
210
0.0
220
0.0
230
-1.0
  0
LINE
  5
B3
330
70
100
AcDbEntity
  8
Vector Layer 1
 62
    18
420
        0
370
    30
100
AcDbLine
 10
-9.956401576588493
 20
-4.512114569279473
 30
0.0
 11
-9.956401576588493
 21
-4.833903805334495
 31
0.0
  0
LINE
  5
B4
330
70
100
AcDbEntity
  8
Vector Layer 1
 62
    18
420
        0
370
    30
100
AcDbLine
 10
-0.0112242338923079
 20
-4.512114569279471
 30
0.0
 11
-0.0112242338923077
 21
-4.834057958962467
 31
0.0
  0
LWPOLYLINE
  5
B5
330
70
100
AcDbEntity
  8
Vector Layer 1
 62
    18
420
        0
370
    30
100
AcDbPolyline
 90
        8
 70
     0
 43
0.0
 10
9.999999999999989
 20
-2.499999999999992
 10
9.999999999999989
 20
2.499999999999998
 10
9.999999999999989
 20
2.499999999999998
 10
-0.0000000000000089
 20
2.5
 10
-0.0000000000000089
 20
2.5
 10
-0.0000000000000089
 20
-2.499999999999999
 10
-0.0000000000000089
 20
-2.499999999999999
 10
9.999999999999989
 20
-2.499999999999992
210
0.0
220
0.0
230
-1.0
  0
LINE
  5
B6
330
70
100
AcDbEntity
  8
Vector Layer 1
 62
    18
420
        0
370
    30
100
AcDbLine
 10
-9.183035060769995
 20
2.499999999999998
 30
0.0
 11
-9.183035060769995
 21
-2.5
 31
0.0
  0
LINE
  5
B7
330
70
100
AcDbEntity
  8
Vector Layer 1
 62
    18
420
        0
370
    30
100
AcDbLine
 10
-8.686175674803934
 20
2.499999999999998
 30
0.0
 11
-8.686175674803934
 21
-2.5
 31
0.0
  0
LINE
  5
B8
330
70
100
AcDbEntity
  8
Vector Layer 1
 62
    18
420
        0
370
    30
100
AcDbLine
 10
-0.1896430206495264
 20
2.5
 30
0.0
 11
-0.1896430206495264
 21
-2.499999999999999
 31
0.0
  0
LINE
  5
B9
330
70
100
AcDbEntity
  8
Vector Layer 1
 62
    18
420
        0
370
    30
100
AcDbLine
 10
-0.3432261618346044
 20
2.5
 30
0.0
 11
-0.3432261618346044
 21
-2.499999999999999
 31
0.0
  0
LINE
  5
BA
330
70
100
AcDbEntity
  8
Vector Layer 1
 62
    18
420
        0
370
    30
100
AcDbLine
 10
-0.4486171368695843
 20
2.5
 30
0.0
 11
-0.4486171368695843
 21
-2.499999999999999
 31
0.0
  0
LWPOLYLINE
  5
BB
330
70
100
AcDbEntity
  8
Vector Layer 1
 62
    18
420
        0
370
    30
100
AcDbPolyline
 90
        8
 70
     0
 43
0.0
 10
8.580405378400623
 20
-1.8924810761425
 10
8.580405378400623
 20
1.894444663021888
 10
8.580405378400623
 20
1.894444663021888
 10
0.7419677471075063
 20
1.894444663021888
 10
0.7419677471075063
 20
1.894444663021888
 10
0.7419677471075063
 20
-1.8924810761425
 10
0.7419677471075063
 20
-1.8924810761425
 10
8.580405378400623
 20
-1.8924810761425
210
0.0
220
0.0
230
-1.0
  0
LINE
  5
BC
330
70
100
AcDbEntity
  8
Vector Layer 1
 62
    18
420
        0
370
    30
100
AcDbLine
 10
-8.480772131834569
 20
1.522667357587859
 30
0.0
 11
-8.176873525845254
 21
1.522667357587859
 31
0.0
  0
LINE
  5
BD
330
70
100
AcDbEntity
  8
Vector Layer 1
 62
    18
420
        0
370
    30
100
AcDbLine
 10
-8.176873525845254
 20
1.781968981039946
 30
0.0
 11
-8.176873525845254
 21
1.522667357587859
 31
0.0
  0
LINE
  5
BE
330
70
100
AcDbEntity
  8
Vector Layer 1
 62
    18
420
        0
370
    30
100
AcDbLine
 10
-8.065674242009539
 20
1.781968981039946
 30
0.0
 11
-8.065674242009539
 21
1.522667357587859
 31
0.0
  0
LINE
  5
BF
330
70
100
AcDbEntity
  8
Vector Layer 1
 62
    18
420
        0
370
    30
100
AcDbLine
 10
-8.480772131834569
 20
1.401122039703695
 30
0.0
 11
-8.176873525845254
 21
1.401122039703695
 31
0.0
  0
LINE
  5
C0
330
70
100
AcDbEntity
  8
Vector Layer 1
 62
    18
420
        0
370
    30
100
AcDbLine
 10
-8.176873525845254
 20
1.401122039703695
 30
0.0
 11
-8.176873525845254
 21
-1.385920632519485
 31
0.0
  0
LINE
  5
C1
330
70
100
AcDbEntity
  8
Vector Layer 1
 62
    18
420
        0
370
    30
100
AcDbLine
 10
-8.176873525845254
 20
-1.507465950403651
 30
0.0
 11
-8.176873525845254
 21
-1.779989258357342
 31
0.0
  0
LINE
  5
C2
330
70
100
AcDbEntity
  8
Vector Layer 1
 62
    18
420
        0
370
    30
100
AcDbLine
 10
-8.480772131834569
 20
-1.385920632519485
 30
0.0
 11
-8.176873525845254
 21
-1.385920632519485
 31
0.0
  0
LINE
  5
C3
330
70
100
AcDbEntity
  8
Vector Layer 1
 62
    18
420
        0
370
    30
100
AcDbLine
 10
-8.480772131834569
 20
-1.507465950403651
 30
0.0
 11
-8.176873525845254
 21
-1.507465950403651
 31
0.0
  0
LINE
  5
C4
330
70
100
AcDbEntity
  8
Vector Layer 1
 62
    18
420
        0
370
    30
100
AcDbLine
 10
-8.065674242009539
 20
-1.507465950403651
 30
0.0
 11
-8.065674242009539
 21
-1.779989258357342
 31
0.0
  0
LINE
  5
C5
330
70
100
AcDbEntity
  8
Vector Layer 1
 62
    18
420
        0
370
    30
100
AcDbLine
 10
-2.56849193099666
 20
-1.507465950403651
 30
0.0
 11
-2.56849193099666
 21
-1.779989258357342
 31
0.0
  0
LINE
  5
C6
330
70
100
AcDbEntity
  8
Vector Layer 1
 62
    18
420
        0
370
    30
100
AcDbLine
 10
-2.457292647160936
 20
-1.507465950403651
 30
0.0
 11
-2.457292647160936
 21
-1.779989258357342
 31
0.0
  0
LINE
  5
C7
330
70
100
AcDbEntity
  8
Vector Layer 1
 62
    18
420
        0
370
    30
100
AcDbLine
 10
-8.065674242009539
 20
-1.507465950403651
 30
0.0
 11
-2.568491930996657
 21
-1.507465950403651
 31
0.0
  0
LINE
  5
C8
330
70
100
AcDbEntity
  8
Vector Layer 1
 62
    18
420
        0
370
    30
100
AcDbLine
 10
-1.283109742630103
 20
-1.507465950403651
 30
0.0
 11
-1.283109742630103
 21
-1.779989258357342
 31
0.0
  0
LINE
  5
C9
330
70
100
AcDbEntity
  8
Vector Layer 1
 62
    18
420
        0
370
    30
100
AcDbLine
 10
-2.457292647160931
 20
-1.507465950403651
 30
0.0
 11
-1.283109742630103
 21
-1.507465950403651
 31
0.0
  0
POLYLINE
  5
CA
330
70
100
AcDbEntity
  8
Vector Layer 1
 62
    18
420
        0
370
    30
100
AcDb3dPolyline
 66
     1
 10
0.0
 20
0.0
 30
0.0
 70
     8
  0
VERTEX
  5
CB
330
CA
100
AcDbEntity
  8
0
 62
    18
420
        0
100
AcDbVertex
100
AcDb3dPolylineVertex
 10
-1.171910458794376
 20
-1.507465950403651
 30
0.0
 70
    32
  0
VERTEX
  5
CC
330
CA
100
AcDbEntity
  8
0
 62
    18
420
        0
100
AcDbVertex
100
AcDb3dPolylineVertex
 10
-0.8404112497403641
 20
-1.507465950403651
 30
0.0
 70
    32
  0
VERTEX
  5
CD
330
CA
100
AcDbEntity
  8
0
 62
    18
420
        0
100
AcDbVertex
100
AcDb3dPolylineVertex
 10
-0.839998955863685
 20
-1.507465950403651
 30
0.0
 70
    32
  0
SEQEND
  5
CE
330
CA
100
AcDbEntity
  8
Vector Layer 1
 62
    18
420
        0
370
    30
  0
LINE
  5
CF
330
70
100
AcDbEntity
  8
Vector Layer 1
 62
    18
420
        0
370
    30
100
AcDbLine
 10
-1.171910458794376
 20
-1.507465950403651
 30
0.0
 11
-1.171910458794376
 21
-1.779989258357342
 31
0.0
  0
LINE
  5
D0
330
70
100
AcDbEntity
  8
Vector Layer 1
 62
    18
420
        0
370
    30
100
AcDbLine
 10
-2.457292647160931
 20
-1.385920632519485
 30
0.0
 11
-1.283109742630103
 21
-1.385920632519485
 31
0.0
  0
POLYLINE
  5
D1
330
70
100
AcDbEntity
  8
Vector Layer 1
 62
    18
420
        0
370
    30
100
AcDb3dPolyline
 66
     1
 10
0.0
 20
0.0
 30
0.0
 70
     8
  0
VERTEX
  5
D2
330
D1
100
AcDbEntity
  8
0
 62
    18
420
        0
100
AcDbVertex
100
AcDb3dPolylineVertex
 10
-1.171910458794376
 20
-1.385920632519485
 30
0.0
 70
    32
  0
VERTEX
  5
D3
330
D1
100
AcDbEntity
  8
0
 62
    18
420
        0
100
AcDbVertex
100
AcDb3dPolylineVertex
 10
-0.8404112497403641
 20
-1.385920632519485
 30
0.0
 70
    32
  0
VERTEX
  5
D4
330
D1
100
AcDbEntity
  8
0
 62
    18
420
        0
100
AcDbVertex
100
AcDb3dPolylineVertex
 10
-0.839998955863685
 20
-1.385920632519485
 30
0.0
 70
    32
  0
SEQEND
  5
D5
330
D1
100
AcDbEntity
  8
Vector Layer 1
 62
    18
420
        0
370
    30
  0
LINE
  5
D6
330
70
100
AcDbEntity
  8
Vector Layer 1
 62
    18
420
        0
370
    30
100
AcDbLine
 10
-1.171910458794376
 20
1.781968981039946
 30
0.0
 11
-1.171910458794376
 21
1.522667357587859
 31
0.0
  0
POLYLINE
  5
D7
330
70
100
AcDbEntity
  8
Vector Layer 1
 62
    18
420
        0
370
    30
100
AcDb3dPolyline
 66
     1
 10
0.0
 20
0.0
 30
0.0
 70
     8
  0
VERTEX
  5
D8
330
D7
100
AcDbEntity
  8
0
 62
    18
420
        0
100
AcDbVertex
100
AcDb3dPolylineVertex
 10
-1.171910458794376
 20
1.522667357587859
 30
0.0
 70
    32
  0
VERTEX
  5
D9
330
D7
100
AcDbEntity
  8
0
 62
    18
420
        0
100
AcDbVertex
100
AcDb3dPolylineVertex
 10
-0.8404112497403641
 20
1.522667357587859
 30
0.0
 70
    32
  0
VERTEX
  5
DA
330
D7
100
AcDbEntity
  8
0
 62
    18
420
        0
100
AcDbVertex
100
AcDb3dPolylineVertex
 10
-0.839998955863685
 20
1.522667357587859
 30
0.0
 70
    32
  0
SEQEND
  5
DB
330
D7
100
AcDbEntity
  8
Vector Layer 1
 62
    18
420
        0
370
    30
  0
LINE
  5
DC
330
70
100
AcDbEntity
  8
Vector Layer 1
 62
    18
420
        0
370
    30
100
AcDbLine
 10
-1.283109742630103
 20
1.781968981039946
 30
0.0
 11
-1.283109742630103
 21
1.522667357587859
 31
0.0
  0
LINE
  5
DD
330
70
100
AcDbEntity
  8
Vector Layer 1
 62
    18
420
        0
370
    30
100
AcDbLine
 10
-2.457292647160936
 20
1.781968981039946
 30
0.0
 11
-2.457292647160936
 21
1.522667357587859
 31
0.0
  0
LINE
  5
DE
330
70
100
AcDbEntity
  8
Vector Layer 1
 62
    18
420
        0
370
    30
100
AcDbLine
 10
-8.065674242009539
 20
1.522667357587859
 30
0.0
 11
-2.568491930996657
 21
1.522667357587859
 31
0.0
  0
LINE
  5
DF
330
70
100
AcDbEntity
  8
Vector Layer 1
 62
    18
420
        0
370
    30
100
AcDbLine
 10
-2.457292647160931
 20
1.522667357587859
 30
0.0
 11
-1.283109742630103
 21
1.522667357587859
 31
0.0
  0
LINE
  5
E0
330
70
100
AcDbEntity
  8
Vector Layer 1
 62
    18
420
        0
370
    30
100
AcDbLine
 10
-8.065674242009539
 20
1.401122039703695
 30
0.0
 11
-2.568491930996657
 21
1.401122039703695
 31
0.0
  0
LINE
  5
E1
330
70
100
AcDbEntity
  8
Vector Layer 1
 62
    18
420
        0
370
    30
100
AcDbLine
 10
-2.56849193099666
 20
1.781968981039946
 30
0.0
 11
-2.56849193099666
 21
1.522667357587859
 31
0.0
  0
LINE
  5
E2
330
70
100
AcDbEntity
  8
Vector Layer 1
 62
    18
420
        0
370
    30
100
AcDbLine
 10
-2.457292647160931
 20
1.401122039703695
 30
0.0
 11
-1.283109742630103
 21
1.401122039703695
 31
0.0
  0
POLYLINE
  5
E3
330
70
100
AcDbEntity
  8
Vector Layer 1
 62
    18
420
        0
370
    30
100
AcDb3dPolyline
 66
     1
 10
0.0
 20
0.0
 30
0.0
 70
     8
  0
VERTEX
  5
E4
330
E3
100
AcDbEntity
  8
0
 62
    18
420
        0
100
AcDbVertex
100
AcDb3dPolylineVertex
 10
-1.171910458794376
 20
1.401122039703695
 30
0.0
 70
    32
  0
VERTEX
  5
E5
330
E3
100
AcDbEntity
  8
0
 62
    18
420
        0
100
AcDbVertex
100
AcDb3dPolylineVertex
 10
-0.8404112497403641
 20
1.401122039703695
 30
0.0
 70
    32
  0
VERTEX
  5
E6
330
E3
100
AcDbEntity
  8
0
 62
    18
420
        0
100
AcDbVertex
100
AcDb3dPolylineVertex
 10
-0.839998955863685
 20
1.401122039703695
 30
0.0
 70
    32
  0
SEQEND
  5
E7
330
E3
100
AcDbEntity
  8
Vector Layer 1
 62
    18
420
        0
370
    30
  0
LWPOLYLINE
  5
E8
330
70
100
AcDbEntity
  8
Vector Layer 1
 62
    18
420
        0
370
    30
100
AcDbPolyline
 90
        4
 70
     0
 43
0.0
 10
8.480772131834569
 20
1.522667357587859
 10
8.480772131834569
 20
1.781968981039946
 10
8.480772131834569
 20
1.781968981039946
 10
8.176873525845254
 20
1.781968981039946
210
0.0
220
0.0
230
-1.0
  0
LINE
  5
E9
330
70
100
AcDbEntity
  8
Vector Layer 1
 62
    18
420
        0
370
    30
100
AcDbLine
 10
-8.480772131834569
 20
-1.385920632519485
 30
0.0
 11
-8.480772131834569
 21
1.401122039703695
 31
0.0
  0
LWPOLYLINE
  5
EA
330
70
100
AcDbEntity
  8
Vector Layer 1
 62
    18
420
        0
370
    30
100
AcDbPolyline
 90
        4
 70
     0
 43
0.0
 10
8.17687352584525
 20
-1.779989258357342
 10
8.480772131834569
 20
-1.779989258357342
 10
8.480772131834569
 20
-1.779989258357342
 10
8.480772131834569
 20
-1.507465950403651
210
0.0
220
0.0
230
-1.0
  0
LWPOLYLINE
  5
EB
330
70
100
AcDbEntity
  8
Vector Layer 1
 62
    18
420
        0
370
    30
100
AcDbPolyline
 90
        4
 70
     0
 43
0.0
 10
0.8404112497403641
 20
-1.507465950403651
 10
0.8404112497403641
 20
-1.779989258357342
 10
0.8404112497403641
 20
-1.779989258357342
 10
1.171910458794373
 20
-1.779989258357342
210
0.0
220
0.0
230
-1.0
  0
LINE
  5
EC
330
70
100
AcDbEntity
  8
Vector Layer 1
 62
    18
420
        0
370
    30
100
AcDbLine
 10
-1.283109742630103
 20
-1.779989258357342
 30
0.0
 11
-2.457292647160936
 21
-1.779989258357342
 31
0.0
  0
LINE
  5
ED
330
70
100
AcDbEntity
  8
Vector Layer 1
 62
    18
420
        0
370
    30
100
AcDbLine
 10
-2.56849193099666
 20
-1.779989258357342
 30
0.0
 11
-8.065674242009539
 21
-1.779989258357342
 31
0.0
  0
LWPOLYLINE
  5
EE
330
70
100
AcDbEntity
  8
Vector Layer 1
 62
    18
420
        0
370
    30
100
AcDbPolyline
 90
        4
 70
     0
 43
0.0
 10
1.171910458794376
 20
1.781968981039946
 10
0.8404112497403641
 20
1.781968981039946
 10
0.8404112497403641
 20
1.781968981039946
 10
0.8404112497403641
 20
1.522667357587859
210
0.0
220
0.0
230
-1.0
  0
LINE
  5
EF
330
70
100
AcDbEntity
  8
Vector Layer 1
 62
    18
420
        0
370
    30
100
AcDbLine
 10
-0.8404112497403641
 20
1.401122039703695
 30
0.0
 11
-0.8404112497403641
 21
0.060815483029375
 31
0.0
  0
LINE
  5
F0
330
70
100
AcDbEntity
  8
Vector Layer 1
 62
    18
420
        0
370
    30
100
AcDbLine
 10
-0.8404112497403641
 20
-0.0600426184681951
 30
0.0
 11
-0.8404112497403641
 21
-1.385920632519485
 31
0.0
  0
LINE
  5
F1
330
70
100
AcDbEntity
  8
Vector Layer 1
 62
    18
420
        0
370
    30
100
AcDbLine
 10
-8.065674242009539
 20
1.781968981039946
 30
0.0
 11
-2.56849193099666
 21
1.781968981039946
 31
0.0
  0
LINE
  5
F2
330
70
100
AcDbEntity
  8
Vector Layer 1
 62
    18
420
        0
370
    30
100
AcDbLine
 10
-2.457292647160931
 20
1.781968981039946
 30
0.0
 11
-1.283109742630101
 21
1.781968981039946
 31
0.0
  0
LINE
  5
F3
330
70
100
AcDbEntity
  8
Vector Layer 1
 62
    18
420
        0
370
    30
100
AcDbLine
 10
-8.065674242009539
 20
1.401122039703695
 30
0.0
 11
-8.065674242009539
 21
0.060815483029375
 31
0.0
  0
LINE
  5
F4
330
70
100
AcDbEntity
  8
Vector Layer 1
 62
    18
420
        0
370
    30
100
AcDbLine
 10
-8.065674242009539
 20
-0.0600426184681948
 30
0.0
 11
-8.065674242009539
 21
-1.385920632519485
 31
0.0
  0
LINE
  5
F5
330
70
100
AcDbEntity
  8
Vector Layer 1
 62
    18
420
        0
370
    30
100
AcDbLine
 10
-6.024695827093679
 20
0.0916361697503126
 30
0.0
 11
-6.019583287682799
 21
0.0864994761554557
 31
0.0
  0
LINE
  5
F6
330
70
100
AcDbEntity
  8
Vector Layer 1
 62
    18
420
        0
370
    30
100
AcDbLine
 10
-2.56849193099666
 20
1.401122039703695
 30
0.0
 11
-2.56849193099666
 21
0.8229169528172135
 31
0.0
  0
LINE
  5
F7
330
70
100
AcDbEntity
  8
Vector Layer 1
 62
    18
420
        0
370
    30
100
AcDbLine
 10
-2.457292647160936
 20
1.401122039703695
 30
0.0
 11
-2.457292647160936
 21
0.7274293850472813
 31
0.0
  0
LINE
  5
F8
330
70
100
AcDbEntity
  8
Vector Layer 1
 62
    18
420
        0
370
    30
100
AcDbLine
 10
-6.143866041934429
 20
0.060815483029374
 30
0.0
 11
-7.019603777985488
 21
0.060815483029374
 31
0.0
  0
LINE
  5
F9
330
70
100
AcDbEntity
  8
Vector Layer 1
 62
    18
420
        0
370
    30
100
AcDbLine
 10
-5.187009116232215
 20
0.060815483029374
 30
0.0
 11
-5.893932726401986
 21
0.060815483029374
 31
0.0
  0
LINE
  5
FA
330
70
100
AcDbEntity
  8
Vector Layer 1
 62
    18
420
        0
370
    30
100
AcDbLine
 10
-4.762959698404573
 20
0.060815483029374
 30
0.0
 11
-4.969362272992517
 21
0.060815483029374
 31
0.0
  0
LINE
  5
FB
330
70
100
AcDbEntity
  8
Vector Layer 1
 62
    18
420
        0
370
    30
100
AcDbLine
 10
-4.019157948876899
 20
0.060815483029374
 30
0.0
 11
-4.604808492712645
 21
0.060815483029374
 31
0.0
  0
LINE
  5
FC
330
70
100
AcDbEntity
  8
Vector Layer 1
 62
    18
420
        0
370
    30
100
AcDbLine
 10
-3.205952451962507
 20
0.060815483029374
 30
0.0
 11
-3.875740854156785
 21
0.060815483029374
 31
0.0
  0
LINE
  5
FD
330
70
100
AcDbEntity
  8
Vector Layer 1
 62
    18
420
        0
370
    30
100
AcDbLine
 10
-0.8404112497403627
 20
0.060815483029374
 30
0.0
 11
-1.171910458794376
 21
0.060815483029374
 31
0.0
  0
LINE
  5
FE
330
70
100
AcDbEntity
  8
Vector Layer 1
 62
    18
420
        0
370
    30
100
AcDbLine
 10
-1.283109742630103
 20
0.060815483029374
 30
0.0
 11
-1.785113831922692
 21
0.060815483029374
 31
0.0
  0
LINE
  5
FF
330
70
100
AcDbEntity
  8
Vector Layer 1
 62
    18
420
        0
370
    30
100
AcDbLine
 10
-1.283109742630103
 20
1.401122039703695
 30
0.0
 11
-1.283109742630103
 21
0.060815483029375
 31
0.0
  0
LINE
  5
100
330
70
100
AcDbEntity
  8
Vector Layer 1
 62
    18
420
        0
370
    30
100
AcDbLine
 10
-1.283109742630103
 20
-0.0600426184681951
 30
0.0
 11
-1.283109742630103
 21
-1.385920632519485
 31
0.0
  0
LINE
  5
101
330
70
100
AcDbEntity
  8
Vector Layer 1
 62
    18
420
        0
370
    30
100
AcDbLine
 10
-1.171910458794376
 20
1.401122039703695
 30
0.0
 11
-1.171910458794376
 21
0.0608154830293741
 31
0.0
  0
LINE
  5
102
330
70
100
AcDbEntity
  8
Vector Layer 1
 62
    18
420
        0
370
    30
100
AcDbLine
 10
-1.171910458794376
 20
-0.0600426184681948
 30
0.0
 11
-1.171910458794376
 21
-1.385920632519485
 31
0.0
  0
LINE
  5
103
330
70
100
AcDbEntity
  8
Vector Layer 1
 62
    18
420
        0
370
    30
100
AcDbLine
 10
-0.8404112497403627
 20
-0.0600426184681951
 30
0.0
 11
-1.171910458794376
 21
-0.0600426184681951
 31
0.0
  0
LINE
  5
104
330
70
100
AcDbEntity
  8
Vector Layer 1
 62
    18
420
        0
370
    30
100
AcDbLine
 10
-1.283109742630103
 20
-0.0600426184681951
 30
0.0
 11
-1.794620029223871
 21
-0.0600426184681951
 31
0.0
  0
LWPOLYLINE
  5
105
330
70
100
AcDbEntity
  8
Vector Layer 1
 62
    18
420
        0
370
    30
100
AcDbPolyline
 90
       74
 70
     0
 43
0.0
 10
-6.024695827093679
 20
-0.0874277251333093
 10
-6.119476077982878
 20
-0.205568759194793
 10
-6.119476077982879
 20
-0.205568759194793
 10
-6.153669732074678
 20
-0.2487401226914866
 10
-6.187863386166474
 20
-0.2919114861881802
 10
-6.222872715316549
 20
-0.3344498872618668
 10
-6.222872715316548
 20
-0.3344498872618668
 10
-6.260972078426592
 20
-0.3785469247797479
 10
-6.299913831331649
 20
-0.421951997092707
 10
-6.339809388491528
 20
-0.4645243591073383
 10
-6.339809388491527
 20
-0.4645243591073383
 10
-6.395131398294311
 20
-0.5210584672245143
 10
-6.451707056986567
 20
-0.5764244777487175
 10
-6.509675292682553
 20
-0.6303991443047749
 10
-6.509675292682553
 20
-0.6303991443047749
 10
-6.554993646352317
 20
-0.6697923551597274
 10
-6.601325579208554
 20
-0.7080941870251869
 10
-6.647657512064794
 20
-0.7463960188906459
 10
-6.647657512064794
 20
-0.7463960188906462
 10
-6.515378502743192
 20
-1.052605842257013
 10
-6.515378502743192
 20
-1.052605842257013
 10
-6.447913858051799
 20
-1.225124844703041
 10
-6.447913858051799
 20
-1.225124844703041
 10
-6.428776568674386
 20
-1.285167511167517
 10
-6.428776568674386
 20
-1.285167511167517
 10
-6.401442928765187
 20
-1.268286288306903
 10
-6.374431869707844
 20
-1.25094189946174
 10
-6.374431869707844
 20
-1.25094189946174
 10
-6.332092883942868
 20
-1.221625824337404
 10
-6.290480206287262
 20
-1.19134294321684
 10
-6.249962968390968
 20
-1.159726786165927
 10
-6.249962968390968
 20
-1.159726786165927
 10
-6.209701634460938
 20
-1.125552142297403
 10
-6.170637703904332
 20
-1.090062817714646
 10
-6.132354557697859
 20
-1.053784232702557
 10
-6.132354557697857
 20
-1.053784232702557
 10
-6.073672380331523
 20
-0.9962882872143426
 10
-6.016246865995642
 20
-0.937599898643578
 10
-5.960149210382643
 20
-0.8777297822112178
 10
-5.960149210382644
 20
-0.8777297822112178
 10
-5.923437188608905
 20
-0.8365110061546305
 10
-5.887588025798483
 20
-0.7945728628403357
 10
-5.852084006573389
 20
-0.7523469726229579
 10
-5.816407415555634
 20
-0.7102649558571212
 10
-5.816407415555634
 20
-0.7102649558571212
 10
-5.788639363915661
 20
-0.6779332778973437
 10
-5.760871312275686
 20
-0.6456015999375656
 10
-5.733740460590741
 20
-0.6127765033724147
 10
-5.733740460590741
 20
-0.6127765033724147
 10
-5.717734951361237
 20
-0.5917475425460258
 10
-5.702134056647646
 20
-0.5704229863383559
 10
-5.685985927209759
 20
-0.5495024282542459
 10
-5.685985927209759
 20
-0.5495024282542459
 10
-5.663874808535469
 20
-0.5234744227401236
 10
-5.641095124260671
 20
-0.4979996931137804
 10
-5.618168175470306
 20
-0.4726781346056573
 10
-5.618168175470306
 20
-0.4726781346056573
 10
-5.63728955200646
 20
-0.4602793483704359
 10
-5.656044644050512
 20
-0.4473900496625422
 10
-5.65604464405051
 20
-0.4473900496625422
 10
-5.693759232544649
 20
-0.417939856605256
 10
-5.730364785327767
 20
-0.3871724682635873
 10
-5.7660412340091
 20
-0.3554051351785538
 10
-5.7660412340091
 20
-0.3554051351785538
 10
-5.799895554687096
 20
-0.3234328676082869
 10
-5.832800571277499
 20
-0.2905232973375857
 10
-5.865051573108349
 20
-0.2570126215452281
 10
-5.865051573108349
 20
-0.2570126215452281
 10
-5.900288469833526
 20
-0.2189073858279883
 10
-5.934775342135441
 20
-0.1801512611834809
 10
-5.968980963011074
 20
-0.1411605089489423
 10
-5.968980963011074
 20
-0.1411605089489423
 10
-5.99436179719515
 20
-0.1117908300423428
 10
-6.019583287682801
 20
-0.0822910315384528
  0
LWPOLYLINE
  5
106
330
70
100
AcDbEntity
  8
Vector Layer 1
 62
    18
420
        0
370
    30
100
AcDbPolyline
 90
       26
 70
     0
 43
0.0
 10
2.56849193099666
 20
-0.5808973777127612
 10
2.615418404228132
 20
-0.5441250475811615
 10
2.661852942216104
 20
-0.5067850981599113
 10
2.661852942216104
 20
-0.5067850981599115
 10
2.70307541412761
 20
-0.471915538057324
 10
2.743685492119498
 20
-0.4363746801414823
 10
2.783381633265649
 20
-0.399892387266379
 10
2.783381633265649
 20
-0.399892387266379
 10
2.806467392882967
 20
-0.3771364688307802
 10
2.828981948670856
 20
-0.3538336818475666
 10
2.851496504458745
 20
-0.3305308948643531
 10
2.851496504458745
 20
-0.3305308948643531
 10
2.881799698050478
 20
-0.2990175695420778
 10
2.912102891642213
 20
-0.2675042442198024
 10
2.941749542840284
 20
-0.2354225695514777
 10
2.941749542840285
 20
-0.2354225695514776
 10
2.974113818031432
 20
-0.1979835372383929
 10
3.005714104054242
 20
-0.1599216867034652
 10
3.037314390077057
 20
-0.121859836168538
 10
3.037314390077057
 20
-0.121859836168538
 10
3.090369301472434
 20
-0.0566070384123715
 10
3.090369301472433
 20
-0.0566070384123715
 10
3.109477780057233
 20
-0.0323138614086195
 10
3.128148206670794
 20
-0.0077137858799263
 10
3.128148206670794
 20
-0.0077137858799263
 10
3.134950413132869
 20
0.0024778635167312
210
0.0
220
0.0
230
-1.0
  0
LWPOLYLINE
  5
107
330
70
100
AcDbEntity
  8
Vector Layer 1
 62
    18
420
        0
370
    30
100
AcDbPolyline
 90
       24
 70
     0
 43
0.0
 10
2.457292647160936
 20
-0.5335541727373615
 10
2.442982320289331
 20
-0.5170683558717173
 10
2.429718154534053
 20
-0.4995242242823414
 10
2.416801667389494
 20
-0.4816915821656857
 10
2.403534376350045
 20
-0.4643402337182023
 10
2.403534376350045
 20
-0.4643402337182022
 10
2.375652843259051
 20
-0.4305817203882633
 10
2.346912408189362
 20
-0.3975129819998956
 10
2.346912408189362
 20
-0.3975129819998955
 10
2.302482504578016
 20
-0.3489824590458887
 10
2.256780979518706
 20
-0.3009765283254362
 10
2.210281137427016
 20
-0.2543117285920369
 10
2.210281137427016
 20
-0.2543117285920369
 10
2.168927339278893
 20
-0.2149917847789171
 10
2.126370066787449
 20
-0.1763313059985459
 10
2.083497165458351
 20
-0.1385573820873496
 10
2.083497165458351
 20
-0.1385573820873496
 10
2.05103504318435
 20
-0.1109821229868284
 10
2.017920195921895
 20
-0.0837035247621834
 10
1.985024177521528
 20
-0.0566070384123715
 10
1.985024177521528
 20
-0.0566070384123715
 10
1.944600210508063
 20
-0.0267761352669339
 10
1.944600210508063
 20
-0.0267761352669339
 10
1.90604111986035
 20
0.0020343732690801
210
0.0
220
0.0
230
-1.0
  0
LWPOLYLINE
  5
108
330
70
100
AcDbEntity
  8
Vector Layer 1
 62
    18
420
        0
370
    30
100
AcDbPolyline
 90
       10
 70
     0
 43
0.0
 10
-8.065674242009539
 20
0.0608154830293751
 10
-7.873582845161885
 20
0.3757485814394966
 10
-7.873582845161885
 20
0.3757485814394966
 10
-7.695375766651002
 20
0.7197823115884887
 10
-7.695375766651002
 20
0.7197823115884887
 10
-7.54668201334163
 20
1.057916432006705
 10
-7.54668201334163
 20
1.057916432006705
 10
-7.479918166222017
 20
1.229570135903206
 10
-7.479918166222017
 20
1.229570135903206
 10
-7.419643764986974
 20
1.401122039703695
  0
LWPOLYLINE
  5
109
330
70
100
AcDbEntity
  8
Vector Layer 1
 62
    18
420
        0
370
    30
100
AcDbPolyline
 90
       10
 70
     0
 43
0.0
 10
-7.936917176515549
 20
0.0608154830293751
 10
-7.753052960054118
 20
0.3796449628171532
 10
-7.753052960054118
 20
0.3796449628171532
 10
-7.576420926920085
 20
0.7240990678709612
 10
-7.576420926920085
 20
0.7240990678709612
 10
-7.432691901273194
 20
1.056814286874017
 10
-7.432691901273194
 20
1.056814286874017
 10
-7.365227256581808
 20
1.229333289320047
 10
-7.365227256581808
 20
1.229333289320047
 10
-7.310473342049667
 20
1.401122039703695
  0
LWPOLYLINE
  5
10A
330
70
100
AcDbEntity
  8
Vector Layer 1
 62
    18
420
        0
370
    30
100
AcDbPolyline
 90
       10
 70
     0
 43
0.0
 10
-7.148360843479482
 20
0.0608154830293751
 10
-6.95626944663183
 20
0.3757485814394966
 10
-6.95626944663183
 20
0.3757485814394966
 10
-6.778062368120966
 20
0.7197823115884887
 10
-6.778062368120966
 20
0.7197823115884887
 10
-6.629368614811611
 20
1.057916432006705
 10
-6.629368614811611
 20
1.057916432006705
 10
-6.562604767691982
 20
1.229570135903206
 10
-6.562604767691982
 20
1.229570135903206
 10
-6.502330366456966
 20
1.401122039703695
  0
LWPOLYLINE
  5
10B
330
70
100
AcDbEntity
  8
Vector Layer 1
 62
    18
420
        0
370
    30
100
AcDbPolyline
 90
       74
 70
     0
 43
0.0
 10
6.024695827093679
 20
0.0916361697503126
 10
6.119476077982878
 20
0.2097772038117962
 10
6.119476077982879
 20
0.2097772038117962
 10
6.153669732074678
 20
0.2529485673084894
 10
6.187863386166474
 20
0.2961199308051829
 10
6.222872715316549
 20
0.3386583318788697
 10
6.222872715316548
 20
0.3386583318788698
 10
6.260972078426592
 20
0.3827553693967507
 10
6.299913831331649
 20
0.4261604417097097
 10
6.339809388491528
 20
0.4687328037243411
 10
6.339809388491527
 20
0.4687328037243411
 10
6.395131398294311
 20
0.5252669118415171
 10
6.451707056986567
 20
0.5806329223657198
 10
6.509675292682553
 20
0.6346075889217774
 10
6.509675292682553
 20
0.6346075889217775
 10
6.554993646352317
 20
0.6740007997767306
 10
6.601325579208554
 20
0.7123026316421904
 10
6.647657512064794
 20
0.7506044635076492
 10
6.647657512064794
 20
0.7506044635076492
 10
6.515378502743192
 20
1.056814286874017
 10
6.515378502743192
 20
1.056814286874017
 10
6.447913858051799
 20
1.229333289320047
 10
6.447913858051799
 20
1.229333289320047
 10
6.428776568674386
 20
1.289375955784519
 10
6.428776568674386
 20
1.289375955784519
 10
6.401442928765187
 20
1.272494732923906
 10
6.374431869707844
 20
1.255150344078745
 10
6.374431869707844
 20
1.255150344078745
 10
6.332092883942868
 20
1.225834268954408
 10
6.290480206287262
 20
1.195551387833844
 10
6.249962968390968
 20
1.163935230782928
 10
6.249962968390968
 20
1.163935230782927
 10
6.209701634460938
 20
1.129760586914405
 10
6.170637703904332
 20
1.094271262331648
 10
6.132354557697859
 20
1.05799267731956
 10
6.132354557697857
 20
1.05799267731956
 10
6.073672380331523
 20
1.000496731831344
 10
6.016246865995642
 20
0.9418083432605802
 10
5.960149210382643
 20
0.8819382268282215
 10
5.960149210382644
 20
0.8819382268282215
 10
5.923437188608905
 20
0.840719450771634
 10
5.887588025798483
 20
0.7987813074573389
 10
5.852084006573389
 20
0.7565554172399605
 10
5.816407415555634
 20
0.7144734004741231
 10
5.816407415555634
 20
0.7144734004741231
 10
5.788639363915661
 20
0.6821417225143462
 10
5.760871312275686
 20
0.649810044554569
 10
5.733740460590741
 20
0.6169849479894176
 10
5.733740460590741
 20
0.6169849479894176
 10
5.717734951361237
 20
0.5959559871630295
 10
5.702134056647646
 20
0.5746314309553601
 10
5.685985927209759
 20
0.5537108728712502
 10
5.685985927209759
 20
0.5537108728712501
 10
5.663874808535469
 20
0.5276828673571272
 10
5.641095124260671
 20
0.5022081377307838
 10
5.618168175470306
 20
0.4768865792226604
 10
5.618168175470306
 20
0.4768865792226604
 10
5.63728955200646
 20
0.4644877929874384
 10
5.656044644050512
 20
0.4515984942795453
 10
5.65604464405051
 20
0.4515984942795454
 10
5.693759232544649
 20
0.4221483012222588
 10
5.730364785327767
 20
0.3913809128805903
 10
5.7660412340091
 20
0.3596135797955566
 10
5.7660412340091
 20
0.3596135797955565
 10
5.799895554687096
 20
0.3276413122252896
 10
5.832800571277499
 20
0.2947317419545885
 10
5.865051573108349
 20
0.2612210661622308
 10
5.865051573108349
 20
0.2612210661622308
 10
5.900288469833526
 20
0.2231158304449913
 10
5.934775342135441
 20
0.1843597058004842
 10
5.968980963011074
 20
0.145368953565946
 10
5.968980963011074
 20
0.1453689535659461
 10
5.99436179719515
 20
0.1159992746593457
 10
6.019583287682801
 20
0.0864994761554557
210
0.0
220
0.0
230
-1.0
  0
LWPOLYLINE
  5
10C
330
70
100
AcDbEntity
  8
Vector Layer 1
 62
    18
420
        0
370
    30
100
AcDbPolyline
 90
       79
 70
     0
 43
0.0
 10
-6.393159943519674
 20
1.401122039703695
 10
-6.356506475793598
 20
1.377620679105548
 10
-6.319853008067526
 20
1.354119318507402
 10
-6.283882067447176
 20
1.329678335177032
 10
-6.283882067447175
 20
1.329678335177032
 10
-6.241549262664223
 20
1.298573069476857
 10
-6.200088293089639
 20
1.266365199490978
 10
-6.159413166130305
 20
1.233237356015313
 10
-6.159413166130306
 20
1.233237356015314
 10
-6.106378823065632
 20
1.187569816701174
 10
-6.055035701640164
 20
1.14012192785917
 10
-6.055035701640164
 20
1.14012192785917
 10
-6.01385464144026
 20
1.099388174987076
 10
-5.973673079155907
 20
1.057708195548114
 10
-5.933987399896945
 20
1.0155829615423
 10
-5.933987399896945
 20
1.0155829615423
 10
-5.878994171046985
 20
0.9557673987756857
 10
-5.824837310753756
 20
0.8952335382411822
 10
-5.824837310753756
 20
0.8952335382411822
 10
-5.787553657392038
 20
0.8529882165150544
 10
-5.750807201829965
 20
0.8103049477330337
 10
-5.750807201829966
 20
0.8103049477330337
 10
-5.687608761083748
 20
0.733907293226973
 10
-5.624986735126471
 20
0.657058095115684
 10
-5.624986735126471
 20
0.657058095115684
 10
-5.517808591343017
 20
0.5305626607985067
 10
-5.517808591343017
 20
0.5305626607985066
 10
-5.475687582762658
 20
0.4809751759443016
 10
-5.432972641865317
 20
0.4318792052811423
 10
-5.432972641865317
 20
0.4318792052811423
 10
-5.394964926227413
 20
0.3908341186668809
 10
-5.35608397349892
 20
0.3505607117915282
 10
-5.35608397349892
 20
0.3505607117915281
 10
-5.330572305253498
 20
0.3252263410520871
 10
-5.304824861254657
 20
0.3001131278674156
 10
-5.304824861254657
 20
0.3001131278674156
 10
-5.27215164956374
 20
0.3436481728391266
 10
-5.239752753675052
 20
0.3873911130236587
 10
-5.206805226181902
 20
0.4307182627825487
 10
-5.172486119677599
 20
0.4730059364773334
 10
-5.1724861196776
 20
0.4730059364773334
 10
-5.139190247122657
 20
0.5116680764655773
 10
-5.105031305165092
 20
0.5496485665612095
 10
-5.069645263778084
 20
0.5865130759336214
 10
-5.032668092934812
 20
0.6218272737522052
 10
-5.032668092934813
 20
0.6218272737522051
 10
-5.001763997773938
 20
0.6488289764298706
 10
-4.969768413488684
 20
0.6746599066099472
 10
-4.936712533337697
 20
0.6991940454425794
 10
-4.902627550579624
 20
0.7223053740779121
 10
-4.902627550579624
 20
0.7223053740779122
 10
-4.877019063368186
 20
0.7382987874019264
 10
-4.850761814971346
 20
0.7533373665424003
 10
-4.823793789422414
 20
0.7670785485533251
 10
-4.796052970754698
 20
0.7791797704886916
 10
-4.796052970754698
 20
0.7791797704886916
 10
-4.768907052502352
 20
0.7889480999361468
 10
-4.741162012640957
 20
0.7971293400263344
 10
-4.71299662133175
 20
0.8039190482024711
 10
-4.684589648735963
 20
0.8095127819077729
 10
-4.684589648735961
 20
0.8095127819077729
 10
-4.656400754854776
 20
0.8140402771090352
 10
-4.62800201389535
 20
0.8174189142025058
 10
-4.599490909835287
 20
0.8193034819572879
 10
-4.570964926652192
 20
0.8193487691424843
 10
-4.570964926652192
 20
0.8193487691424843
 10
-4.52857077594107
 20
0.8163775815348827
 10
-4.486393172665723
 20
0.8107034881448084
 10
-4.444562172729209
 20
0.8027637313828858
 10
-4.403207832034592
 20
0.7929955536597394
 10
-4.403207832034591
 20
0.7929955536597397
 10
-4.371238133553061
 20
0.7837611233094427
 10
-4.339785727241694
 20
0.7728791005263878
 10
-4.308784081389934
 20
0.760761069103118
 10
-4.278166664287226
 20
0.7478186128321762
 10
-4.278166664287226
 20
0.7478186128321762
 10
-4.248864767678515
 20
0.7338603257793974
 10
-4.220175522014217
 20
0.7186822520905674
 10
-4.191486276349916
 20
0.7035041784017375
  0
LWPOLYLINE
  5
10D
330
70
100
AcDbEntity
  8
Vector Layer 1
 62
    18
420
        0
370
    30
100
AcDbPolyline
 90
       22
 70
     0
 43
0.0
 10
7.019603777985488
 20
0.0608154830293751
 10
6.835739561524055
 20
0.3796449628171532
 10
6.835739561524055
 20
0.3796449628171532
 10
6.699627652846705
 20
0.6450798607727953
 10
6.699627652846705
 20
0.6450798607727953
 10
6.657284018449246
 20
0.6106704405682918
 10
6.615393616546811
 20
0.5757563265556929
 10
6.61539361654681
 20
0.5757563265556929
 10
6.576466305860214
 20
0.5418365142531973
 10
6.538127564429627
 20
0.5072934581821028
 10
6.500954513058428
 20
0.4716026357525179
 10
6.500954513058429
 20
0.4716026357525179
 10
6.447201932839174
 20
0.4159817750521565
 10
6.394996153663657
 20
0.3589657568115599
 10
6.343824340563659
 20
0.3010455934147727
 10
6.293173658570959
 20
0.2427122972458396
 10
6.29317365857096
 20
0.2427122972458396
 10
6.248915137880982
 20
0.1905398380415284
 10
6.205490464616093
 20
0.1377044218522467
 10
6.162505719114166
 20
0.0845316465271592
 10
6.162505719114166
 20
0.0845316465271592
 10
6.143866041934429
 20
0.060815483029374
210
0.0
220
0.0
230
-1.0
  0
LWPOLYLINE
  5
10E
330
70
100
AcDbEntity
  8
Vector Layer 1
 62
    18
420
        0
370
    30
100
AcDbPolyline
 90
       33
 70
     0
 43
0.0
 10
5.893932726401986
 20
0.060815483029374
 10
5.860540041148857
 20
0.0986729543492061
 10
5.826688710796221
 20
0.1361361978691944
 10
5.82668871079622
 20
0.1361361978691944
 10
5.794273403250485
 20
0.1704728379233159
 10
5.761299009062489
 20
0.2043053110781448
 10
5.727364981323471
 20
0.2372131823472022
 10
5.727364981323471
 20
0.2372131823472022
 10
5.695586453985393
 20
0.2658827685086138
 10
5.662977260392105
 20
0.2936813151774274
 10
5.629892004573824
 20
0.3209455955242511
 10
5.629892004573826
 20
0.3209455955242512
 10
5.602475508274667
 20
0.3428999190824897
 10
5.574369422881
 20
0.3640079794438757
 10
5.574369422880999
 20
0.3640079794438758
 10
5.557619504382661
 20
0.3753392169988073
 10
5.540647392666191
 20
0.3863688963262504
 10
5.54064739266619
 20
0.3863688963262504
 10
5.531624888175042
 20
0.3760314334304438
 10
5.531624888175042
 20
0.3760314334304438
 10
5.496300299404865
 20
0.3360865049887561
 10
5.460461370258042
 20
0.2965768624037419
 10
5.423433522763247
 20
0.258140051420005
 10
5.423433522763247
 20
0.258140051420005
 10
5.38699224557692
 20
0.2231207273978367
 10
5.349474736268366
 20
0.1891638814968658
 10
5.311215497560248
 20
0.1559981276772953
 10
5.311215497560248
 20
0.1559981276772953
 10
5.275387425600786
 20
0.1265106896217254
 10
5.238690310966163
 20
0.0980385244372465
 10
5.238690310966162
 20
0.0980385244372466
 10
5.213005833042735
 20
0.079236427601805
 10
5.187009116232214
 20
0.060815483029374
210
0.0
220
0.0
230
-1.0
  0
LWPOLYLINE
  5
10F
330
70
100
AcDbEntity
  8
Vector Layer 1
 62
    18
420
        0
370
    30
100
AcDbPolyline
 90
       49
 70
     0
 43
0.0
 10
4.969362272992517
 20
0.060815483029374
 10
4.998935551779226
 20
0.0761957898438679
 10
5.02850883056594
 20
0.0915760966583615
 10
5.057332468191074
 20
0.1081701945923628
 10
5.057332468191074
 20
0.1081701945923629
 10
5.095600042217286
 20
0.1331368992193609
 10
5.132955436435792
 20
0.159407148445145
 10
5.169567845428467
 20
0.1866714261406582
 10
5.205606463777188
 20
0.2146202161768441
 10
5.205606463777188
 20
0.2146202161768441
 10
5.218294426960807
 20
0.2248223476571144
 10
5.218294426960807
 20
0.2248223476571144
 10
5.182917216045238
 20
0.2704167619970198
 10
5.147064660269822
 20
0.3156534397408468
 10
5.147064660269821
 20
0.3156534397408467
 10
5.116366604614157
 20
0.353301742745262
 10
5.085438343050903
 20
0.3907858946049335
 10
5.053790852947073
 20
0.4276721766995678
 10
5.020935111669682
 20
0.4635268704088716
 10
5.020935111669682
 20
0.4635268704088715
 10
4.994340084349834
 20
0.4908575773983132
 10
4.967039225531443
 20
0.5175553059239966
 10
4.938820479277487
 20
0.5433062483803904
 10
4.909471789650944
 20
0.5677965971619635
 10
4.909471789650944
 20
0.5677965971619635
 10
4.880403258359183
 20
0.589744176233122
 10
4.850121633127733
 20
0.61012510702792
 10
4.81854118484619
 20
0.6284626200001286
 10
4.818541184846189
 20
0.6284626200001285
 10
4.790734372434763
 20
0.6425957484635592
 10
4.762239812280398
 20
0.6554933002790561
 10
4.733052359465486
 20
0.6667243445406679
 10
4.703166869072419
 20
0.6758579503424432
 10
4.703166869072419
 20
0.6758579503424432
 10
4.673360080972368
 20
0.6826558938828756
 10
4.643076889934157
 20
0.6875022697269079
 10
4.612528486863491
 20
0.6903181123060933
 10
4.581926062666076
 20
0.6910244560519847
 10
4.581926062666074
 20
0.6910244560519847
 10
4.543593400043491
 20
0.6891224671748361
 10
4.505412553679456
 20
0.6845267664947983
 10
4.467600709806751
 20
0.6774924709522759
 10
4.430375054658155
 20
0.6682746974876733
 10
4.430375054658155
 20
0.6682746974876733
 10
4.404025733961139
 20
0.6597051061581276
 10
4.378328435413364
 20
0.6493553290332775
 10
4.353003720950869
 20
0.6379883028825391
 10
4.327772152509694
 20
0.6263669644753288
 10
4.302354292025876
 20
0.6152542505810627
210
0.0
220
0.0
230
-1.0
  0
LWPOLYLINE
  5
110
330
70
100
AcDbEntity
  8
Vector Layer 1
 62
    18
420
        0
370
    30
100
AcDbPolyline
 90
       88
 70
     0
 43
0.0
 10
4.762959698404573
 20
0.060815483029374
 10
4.687926514875065
 20
0.1503582404991886
 10
4.612893331345559
 20
0.2399009979690032
 10
4.538478085340351
 20
0.329923311967116
 10
4.538478085340351
 20
0.3299233119671159
 10
4.50226680609041
 20
0.375081459846965
 10
4.466364333111854
 20
0.4204743973413271
 10
4.429948008637903
 20
0.4654739567461381
 10
4.429948008637903
 20
0.4654739567461381
 10
4.404345575405731
 20
0.4970181951608734
 10
4.378934062644783
 20
0.5287624186229376
 10
4.353107209294807
 20
0.5601532719749337
 10
4.326258754295548
 20
0.590637400059465
 10
4.297782436586753
 20
0.6196614477191349
 10
4.297782436586754
 20
0.619661447719135
 10
4.269974989833392
 20
0.644544279419965
 10
4.240777774383082
 20
0.6679497851446394
 10
4.210570067833366
 20
0.69017606707724
 10
4.179731147781785
 20
0.7115212274018481
 10
4.179731147781786
 20
0.7115212274018483
 10
4.148061329074785
 20
0.732104717453153
 10
4.115467509291226
 20
0.7513093707964775
 10
4.081872842588185
 20
0.768745352450096
 10
4.081872842588186
 20
0.768745352450096
 10
4.055843564298108
 20
0.7805592912902454
 10
4.029175301842215
 20
0.7909853342958611
 10
4.001877561358503
 20
0.7996162620155963
 10
4.001877561358503
 20
0.7996162620155962
 10
3.971487482625055
 20
0.8072448494074558
 10
3.940702419844589
 20
0.8134176814007105
 10
3.909632962492146
 20
0.817960446797957
 10
3.878389700042767
 20
0.8206988344017927
 10
3.878389700042767
 20
0.8206988344017929
 10
3.841020092722963
 20
0.8217578528569589
 10
3.803587480251164
 20
0.8207146172160328
 10
3.766276623315701
 20
0.8175928803800566
 10
3.729272282604904
 20
0.8124163952500728
 10
3.729272282604904
 20
0.812416395250073
 10
3.701276522961408
 20
0.8065910087109116
 10
3.673683622098775
 20
0.799017028364442
 10
3.646405879615247
 20
0.7902863751472439
 10
3.619355595109067
 20
0.7809909699958976
 10
3.619355595109067
 20
0.7809909699958976
 10
3.58160695371091
 20
0.7668438968901334
 10
3.544426448884047
 20
0.7512908378355844
 10
3.507627604950609
 20
0.7349083346329075
 10
3.507627604950609
 20
0.7349083346329073
 10
3.484159658701122
 20
0.7235507209675615
 10
3.460891568323277
 20
0.7117963919980493
 10
3.460891568323278
 20
0.7117963919980493
 10
3.449399009782262
 20
0.7223336152586621
 10
3.437828597944436
 20
0.7329400333124937
 10
3.425857584759057
 20
0.742934048946537
 10
3.425857584759057
 20
0.742934048946537
 10
3.396622225630325
 20
0.7643467583657886
 10
3.366170718262787
 20
0.7845625461122303
 10
3.335040383152852
 20
0.803303957827252
 10
3.335040383152852
 20
0.8033039578272521
 10
3.305908393195765
 20
0.8194615198534995
 10
3.27602416191502
 20
0.8348498430058965
 10
3.245573309502902
 20
0.8491183958749546
 10
3.214741456151699
 20
0.8619166470511858
 10
3.2147414561517
 20
0.861916647051186
 10
3.182493762799396
 20
0.8736580802628138
 10
3.149490598999694
 20
0.8841805911964907
 10
3.116035759570412
 20
0.8932058252185145
 10
3.082433039329366
 20
0.9004554276951823
 10
3.082433039329365
 20
0.9004554276951822
 10
3.041403317650681
 20
0.9070384948146422
 10
2.999717608548708
 20
0.9116333056202039
 10
2.957846323051216
 20
0.9142192087984509
 10
2.916259872185973
 20
0.9147755530359665
 10
2.916259872185973
 20
0.9147755530359667
 10
2.888736947244378
 20
0.9135470246491863
 10
2.861088730822183
 20
0.9108097323224535
 10
2.833532899668766
 20
0.9070601127554947
 10
2.806287130533501
 20
0.9027946026480357
 10
2.806287130533501
 20
0.9027946026480359
 10
2.777795193144518
 20
0.8974245350272742
 10
2.74962588385868
 20
0.8906360720534042
 10
2.749625883858679
 20
0.8906360720534042
 10
2.716837640996664
 20
0.8817072261652075
 10
2.684014999613326
 20
0.8720747084888692
 10
2.651532978650921
 20
0.861271140862987
 10
2.619766597051703
 20
0.8488291451261581
 10
2.619766597051704
 20
0.8488291451261581
 10
2.593670218838562
 20
0.8367405849500133
 10
2.56849193099666
 20
0.8229169528172135
210
0.0
220
0.0
230
-1.0
  0
LWPOLYLINE
  5
111
330
70
100
AcDbEntity
  8
Vector Layer 1
 62
    18
420
        0
370
    30
100
AcDbPolyline
 90
       63
 70
     0
 43
0.0
 10
4.604808492712645
 20
0.060815483029374
 10
4.51411355695484
 20
0.1753869150155233
 10
4.514113556954841
 20
0.1753869150155233
 10
4.471915523697987
 20
0.230463982303503
 10
4.429257350966854
 20
0.2852011324927835
 10
4.429257350966854
 20
0.2852011324927835
 10
4.388875461306073
 20
0.335712092320964
 10
4.347929416617719
 20
0.3857919819302142
 10
4.30561213663524
 20
0.4347612349805545
 10
4.30561213663524
 20
0.4347612349805544
 10
4.280274362128205
 20
0.4627772637744398
 10
4.254469985558341
 20
0.4904110363724647
 10
4.227863458222829
 20
0.5172834203906874
 10
4.200119231418846
 20
0.543015283445167
 10
4.200119231418845
 20
0.543015283445167
 10
4.177930737890248
 20
0.5615165553844552
 10
4.154784376717646
 20
0.5789137887237469
 10
4.130851549832363
 20
0.5952581663711695
 10
4.130851549832363
 20
0.5952581663711695
 10
4.097313827184427
 20
0.6162787100088584
 10
4.062807912633957
 20
0.6357954413960899
 10
4.027209397339057
 20
0.6532727669295533
 10
4.027209397339058
 20
0.6532727669295534
 10
4.006361651609307
 20
0.6623012173282318
 10
3.985135529923932
 20
0.6705436386672015
 10
3.963508456236942
 20
0.6776267324567265
 10
3.941457854502346
 20
0.6831772002070709
 10
3.941457854502346
 20
0.683177200207071
 10
3.914776986280539
 20
0.687706755724242
 10
3.887779122293449
 20
0.6904158732002812
 10
3.860630480532344
 20
0.6915989645091413
 10
3.833497278988494
 20
0.691550441524775
 10
3.833497278988494
 20
0.691550441524775
 10
3.79663877926917
 20
0.6895264660579267
 10
3.759960237429582
 20
0.6850926642003996
 10
3.723685950751551
 20
0.678392490882668
 10
3.72368595075155
 20
0.6783924908826679
 10
3.688274712035869
 20
0.669948461600325
 10
3.653262250559598
 20
0.6599050742792184
 10
3.618846722951875
 20
0.6481325649880391
 10
3.585226285841835
 20
0.6345011697954787
 10
3.585226285841835
 20
0.6345011697954788
 10
3.57564277852108
 20
0.6295717485108515
 10
3.566429202261153
 20
0.6239552341785598
 10
3.557214824763802
 20
0.6183382447620547
 10
3.557214824763803
 20
0.6183382447620547
 10
3.569145684028886
 20
0.6057265755543515
 10
3.569145684028886
 20
0.6057265755543515
 10
3.59882997518533
 20
0.5722527907145932
 10
3.627460797262862
 20
0.5379063444439339
 10
3.655670231708827
 20
0.5032108336009146
 10
3.68409035997057
 20
0.4686898550440756
 10
3.68409035997057
 20
0.4686898550440756
 10
3.728977279025272
 20
0.4132250821826743
 10
3.774182133005954
 20
0.3580063500165441
 10
3.774182133005954
 20
0.3580063500165441
 10
3.825847435067426
 20
0.2974079213753483
 10
3.877477010710299
 20
0.2367815587959147
 10
3.877477010710298
 20
0.2367815587959146
 10
3.942895532058608
 20
0.1572170608613771
 10
4.006804695359992
 20
0.077152411832539
 10
4.006804695359993
 20
0.077152411832539
 10
4.0191579488769
 20
0.060815483029374
210
0.0
220
0.0
230
-1.0
  0
LWPOLYLINE
  5
112
330
70
100
AcDbEntity
  8
Vector Layer 1
 62
    18
420
        0
370
    30
100
AcDbPolyline
 90
       76
 70
     0
 43
0.0
 10
3.875740854156785
 20
0.060815483029374
 10
3.808413617744891
 20
0.1386331012045511
 10
3.741571408092849
 20
0.2168379832580751
 10
3.741571408092849
 20
0.216837983258075
 10
3.694069919875909
 20
0.2746316784828061
 10
3.647206889973328
 20
0.3329249940499521
 10
3.600135993685911
 20
0.3910519774735028
 10
3.552010906314466
 20
0.4483466762674481
 10
3.552010906314466
 20
0.448346676267448
 10
3.529706666261636
 20
0.4745865767793584
 10
3.507530275074539
 20
0.5009931290624551
 10
3.485122463346686
 20
0.5272067743165275
 10
3.462123961671586
 20
0.5528679537413656
 10
3.43817550064275
 20
0.5776171085367589
 10
3.412917810853687
 20
0.6010946799024972
 10
3.412917810853687
 20
0.6010946799024972
 10
3.38891731402994
 20
0.6207332776717487
 10
3.363818853098584
 20
0.6390829528918913
 10
3.337919152147315
 20
0.6564440731875595
 10
3.311514935263826
 20
0.6731170061833878
 10
3.284902926535811
 20
0.689402119504011
 10
3.284902926535811
 20
0.6894021195040109
 10
3.263692530177994
 20
0.7021751737276797
 10
3.242174403655575
 20
0.7144972831442297
 10
3.220171844374791
 20
0.7259069125800589
 10
3.197508149741879
 20
0.7359425268615653
 10
3.19750814974188
 20
0.7359425268615654
 10
3.165718050697916
 20
0.7479290847160018
 10
3.133379249845322
 20
0.7586435886049028
 10
3.100564364270214
 20
0.7678995199245012
 10
3.067346011058704
 20
0.7755103600710296
 10
3.033796807296906
 20
0.7812895904407208
 10
3.033796807296906
 20
0.7812895904407207
 10
2.988774945413963
 20
0.7861839928723884
 10
2.94341904874049
 20
0.788161544640173
 10
2.898016002511745
 20
0.7872997911974307
 10
2.852852691962985
 20
0.7836762779975178
 10
2.852852691962985
 20
0.7836762779975178
 10
2.814608781880906
 20
0.7780527813602938
 10
2.776766007667183
 20
0.769951475358872
 10
2.739423748950445
 20
0.7597624923387818
 10
2.702681385359322
 20
0.7478759646455525
 10
2.702681385359322
 20
0.7478759646455525
 10
2.68055849404773
 20
0.7400490997871245
 10
2.658584487437283
 20
0.7316149651164138
 10
2.637086080279424
 20
0.7222015533834819
 10
2.616389987325593
 20
0.7114368573383905
 10
2.596822923327235
 20
0.698948869731201
 10
2.596822923327234
 20
0.698948869731201
 10
2.58197691023066
 20
0.687172250773763
 10
2.58197691023066
 20
0.687172250773763
 10
2.601460360170475
 20
0.6745240414842538
 10
2.620944443326503
 20
0.661875415861392
 10
2.639948816046448
 20
0.6485853555693066
 10
2.639948816046449
 20
0.6485853555693066
 10
2.686709482360631
 20
0.6122872038860893
 10
2.7321567585656
 20
0.5744148194085935
 10
2.776668593477193
 20
0.5355166213797041
 10
2.776668593477192
 20
0.5355166213797041
 10
2.816589637817639
 20
0.4988712886022767
 10
2.855618285919351
 20
0.4613144378489241
 10
2.894277004170302
 20
0.4233980446202645
 10
2.894277004170302
 20
0.4233980446202645
 10
2.929844192424416
 20
0.3885820615653091
 10
2.965066555098274
 20
0.3534403798275552
 10
2.999285064550286
 20
0.3174011922417887
 10
2.999285064550286
 20
0.3174011922417887
 10
3.03458286831278
 20
0.2769507216244171
 10
3.068755042678179
 20
0.2355728243814172
 10
3.10292721704358
 20
0.1941949271384173
 10
3.10292721704358
 20
0.1941949271384173
 10
3.126870220017516
 20
0.1653313336288873
 10
3.150429870269671
 20
0.1361803265800342
 10
3.150429870269672
 20
0.1361803265800342
 10
3.178435445119502
 20
0.0986716338570425
 10
3.205952451962507
 20
0.060815483029374
210
0.0
220
0.0
230
-1.0
  0
LWPOLYLINE
  5
113
330
70
100
AcDbEntity
  8
Vector Layer 1
 62
    18
420
        0
370
    30
100
AcDbPolyline
 90
       26
 70
     0
 43
0.0
 10
-2.56849193099666
 20
0.5851058223297629
 10
-2.615418404228132
 20
0.5483334921981644
 10
-2.661852942216104
 20
0.5109935427769149
 10
-2.661852942216104
 20
0.5109935427769149
 10
-2.70307541412761
 20
0.4761239826743271
 10
-2.743685492119498
 20
0.4405831247584853
 10
-2.783381633265649
 20
0.4041008318833818
 10
-2.783381633265649
 20
0.4041008318833818
 10
-2.806467392882967
 20
0.381344913447783
 10
-2.828981948670856
 20
0.3580421264645696
 10
-2.851496504458745
 20
0.334739339481356
 10
-2.851496504458745
 20
0.334739339481356
 10
-2.881799698050478
 20
0.3032260141590806
 10
-2.912102891642213
 20
0.2717126888368051
 10
-2.941749542840284
 20
0.2396310141684802
 10
-2.941749542840285
 20
0.2396310141684801
 10
-2.974113818031432
 20
0.2021919818553961
 10
-3.005714104054242
 20
0.1641301313204686
 10
-3.037314390077057
 20
0.1260682807855407
 10
-3.037314390077057
 20
0.1260682807855407
 10
-3.090369301472434
 20
0.060815483029374
 10
-3.090369301472433
 20
0.060815483029374
 10
-3.109477780057233
 20
0.0365223060256225
 10
-3.128148206670794
 20
0.0119222304969292
 10
-3.128148206670794
 20
0.0119222304969292
 10
-3.134950413132869
 20
0.0017305811002713
  0
LWPOLYLINE
  5
114
330
70
100
AcDbEntity
  8
Vector Layer 1
 62
    18
420
        0
370
    30
100
AcDbPolyline
 90
       24
 70
     0
 43
0.0
 10
-2.457292647160936
 20
0.5377626173543657
 10
-2.442982320289331
 20
0.521276800488721
 10
-2.429718154534053
 20
0.5037326688993446
 10
-2.416801667389494
 20
0.4859000267826886
 10
-2.403534376350045
 20
0.4685486783352055
 10
-2.403534376350045
 20
0.4685486783352056
 10
-2.375652843259051
 20
0.4347901650052659
 10
-2.346912408189362
 20
0.4017214266168983
 10
-2.346912408189362
 20
0.4017214266168983
 10
-2.302482504578016
 20
0.3531909036628913
 10
-2.256780979518706
 20
0.3051849729424389
 10
-2.210281137427016
 20
0.2585201732090396
 10
-2.210281137427016
 20
0.2585201732090395
 10
-2.168927339278893
 20
0.21920022939592
 10
-2.126370066787449
 20
0.1805397506155493
 10
-2.083497165458351
 20
0.1427658267043535
 10
-2.083497165458351
 20
0.1427658267043535
 10
-2.05103504318435
 20
0.1151905676038316
 10
-2.017920195921895
 20
0.0879119693791863
 10
-1.985024177521528
 20
0.060815483029374
 10
-1.985024177521528
 20
0.060815483029374
 10
-1.944600210508063
 20
0.0309845798839371
 10
-1.944600210508063
 20
0.0309845798839371
 10
-1.90604111986035
 20
0.0021740713479228
  0
LWPOLYLINE
  5
115
330
70
100
AcDbEntity
  8
Vector Layer 1
 62
    18
420
        0
370
    30
100
AcDbPolyline
 90
       27
 70
     0
 43
0.0
 10
-2.457292647160936
 20
0.7274293850472813
 10
-2.434507175782118
 20
0.6944638234960819
 10
-2.41110577668783
 20
0.6619228208473139
 10
-2.411105776687829
 20
0.6619228208473139
 10
-2.372227170527109
 20
0.6127398202831255
 10
-2.33210035509425
 20
0.5644863509382753
 10
-2.291501181451215
 20
0.5166036611853185
 10
-2.291501181451215
 20
0.5166036611853184
 10
-2.263366190759954
 20
0.4831578657069051
 10
-2.235144463357273
 20
0.4497698601153123
 10
-2.206364926016142
 20
0.4168572357052908
 10
-2.176556505509528
 20
0.3848375837715913
 10
-2.176556505509527
 20
0.3848375837715913
 10
-2.141062446823929
 20
0.3496012749929021
 10
-2.104475217512297
 20
0.3154083035138187
 10
-2.067231767751682
 20
0.2818590292895006
 10
-2.029769047719135
 20
0.2485538122751074
 10
-2.029769047719136
 20
0.2485538122751074
 10
-1.998765964006704
 20
0.2208764347004035
 10
-1.96758400153099
 20
0.1933751469609502
 10
-1.935872654581284
 20
0.1664783348176868
 10
-1.903281417446883
 20
0.1406143840315526
 10
-1.903281417446883
 20
0.1406143840315526
 10
-1.874421965888883
 20
0.1197699966470666
 10
-1.844804242305274
 20
0.0999196783002932
 10
-1.814883209911421
 20
0.0804669875686049
 10
-1.785113831922692
 20
0.060815483029374
  0
LWPOLYLINE
  5
116
330
70
100
AcDbEntity
  8
Vector Layer 1
 62
    18
420
        0
370
    30
100
AcDbPolyline
 90
       20
 70
     0
 43
0.0
 10
-3.231023766827003
 20
-0.0600426184681951
 10
-3.190403659303063
 20
-0.1132744347977093
 10
-3.190403659303063
 20
-0.1132744347977093
 10
-3.154551110292232
 20
-0.1598743654934739
 10
-3.119004804808652
 20
-0.2067128690444456
 10
-3.082846012270572
 20
-0.2530742268850036
 10
-3.045156002096243
 20
-0.2982427204495268
 10
-3.045156002096243
 20
-0.2982427204495268
 10
-3.00668334853999
 20
-0.3407594988249585
 10
-2.966951369809912
 20
-0.3821978122709533
 10
-2.926317055873663
 20
-0.4228289401609945
 10
-2.885137396698899
 20
-0.4629241618685655
 10
-2.885137396698899
 20
-0.4629241618685655
 10
-2.829683257186797
 20
-0.5154397264192204
 10
-2.773089271425849
 20
-0.5668101517442271
 10
-2.715271492507873
 20
-0.6168655092820135
 10
-2.715271492507873
 20
-0.6168655092820134
 10
-2.679730488792929
 20
-0.645693872711358
 10
-2.643486834050787
 20
-0.6737112876178837
 10
-2.607243179308644
 20
-0.7017287025244096
  0
POLYLINE
  5
117
330
70
100
AcDbEntity
  8
Vector Layer 1
 62
    18
420
        0
370
    30
100
AcDb3dPolyline
 66
     1
 10
0.0
 20
0.0
 30
0.0
 70
     8
  0
VERTEX
  5
118
330
117
100
AcDbEntity
  8
0
 62
    18
420
        0
100
AcDbVertex
100
AcDb3dPolylineVertex
 10
-2.457292647160936
 20
0.5377626173543641
 30
0.0
 70
    32
  0
VERTEX
  5
119
330
117
100
AcDbEntity
  8
0
 62
    18
420
        0
100
AcDbVertex
100
AcDb3dPolylineVertex
 10
-2.457292647160936
 20
0.060815483029374
 30
0.0
 70
    32
  0
VERTEX
  5
11A
330
117
100
AcDbEntity
  8
0
 62
    18
420
        0
100
AcDbVertex
100
AcDb3dPolylineVertex
 10
-2.457292647160936
 20
-0.0600426184681951
 30
0.0
 70
    32
  0
VERTEX
  5
11B
330
117
100
AcDbEntity
  8
0
 62
    18
420
        0
100
AcDbVertex
100
AcDb3dPolylineVertex
 10
-2.457292647160936
 20
-0.5335541727373615
 30
0.0
 70
    32
  0
SEQEND
  5
11C
330
117
100
AcDbEntity
  8
Vector Layer 1
 62
    18
420
        0
370
    30
  0
LINE
  5
11D
330
70
100
AcDbEntity
  8
Vector Layer 1
 62
    18
420
        0
370
    30
100
AcDbLine
 10
-2.457292647160936
 20
-0.7232209404302786
 30
0.0
 11
-2.457292647160936
 21
-1.385920632519485
 31
0.0
  0
POLYLINE
  5
11E
330
70
100
AcDbEntity
  8
Vector Layer 1
 62
    18
420
        0
370
    30
100
AcDb3dPolyline
 66
     1
 10
0.0
 20
0.0
 30
0.0
 70
     8
  0
VERTEX
  5
11F
330
11E
100
AcDbEntity
  8
0
 62
    18
420
        0
100
AcDbVertex
100
AcDb3dPolylineVertex
 10
-2.56849193099666
 20
0.5851058223297629
 30
0.0
 70
    32
  0
VERTEX
  5
120
330
11E
100
AcDbEntity
  8
0
 62
    18
420
        0
100
AcDbVertex
100
AcDb3dPolylineVertex
 10
-2.56849193099666
 20
0.0608154830293751
 30
0.0
 70
    32
  0
VERTEX
  5
121
330
11E
100
AcDbEntity
  8
0
 62
    18
420
        0
100
AcDbVertex
100
AcDb3dPolylineVertex
 10
-2.56849193099666
 20
-0.0600426184681951
 30
0.0
 70
    32
  0
VERTEX
  5
122
330
11E
100
AcDbEntity
  8
0
 62
    18
420
        0
100
AcDbVertex
100
AcDb3dPolylineVertex
 10
-2.56849193099666
 20
-0.5808973777127612
 30
0.0
 70
    32
  0
SEQEND
  5
123
330
11E
100
AcDbEntity
  8
Vector Layer 1
 62
    18
420
        0
370
    30
  0
LINE
  5
124
330
70
100
AcDbEntity
  8
Vector Layer 1
 62
    18
420
        0
370
    30
100
AcDbLine
 10
-2.56849193099666
 20
-0.8187085082002097
 30
0.0
 11
-2.56849193099666
 21
-1.385920632519485
 31
0.0
  0
LWPOLYLINE
  5
125
330
70
100
AcDbEntity
  8
Vector Layer 1
 62
    18
420
        0
370
    30
100
AcDbPolyline
 90
       27
 70
     0
 43
0.0
 10
2.457292647160936
 20
-0.7232209404302786
 10
2.434507175782118
 20
-0.6902553788790789
 10
2.41110577668783
 20
-0.6577143762303117
 10
2.411105776687829
 20
-0.6577143762303117
 10
2.372227170527109
 20
-0.6085313756661226
 10
2.33210035509425
 20
-0.5602779063212723
 10
2.291501181451215
 20
-0.5123952165683151
 10
2.291501181451215
 20
-0.5123952165683151
 10
2.263366190759954
 20
-0.4789494210899023
 10
2.235144463357273
 20
-0.4455614154983096
 10
2.206364926016142
 20
-0.412648791088288
 10
2.176556505509528
 20
-0.3806291391545885
 10
2.176556505509527
 20
-0.3806291391545885
 10
2.141062446823929
 20
-0.3453928303758995
 10
2.104475217512297
 20
-0.3111998588968162
 10
2.067231767751682
 20
-0.2776505846724981
 10
2.029769047719135
 20
-0.2443453676581046
 10
2.029769047719136
 20
-0.2443453676581046
 10
1.998765964006704
 20
-0.2166679900834004
 10
1.96758400153099
 20
-0.1891667023439469
 10
1.935872654581284
 20
-0.1622698902006834
 10
1.903281417446883
 20
-0.1364059394145492
 10
1.903281417446883
 20
-0.1364059394145493
 10
1.875682307573332
 20
-0.1164333825783752
 10
1.847373991289201
 20
-0.0973961833478722
 10
1.818758402466121
 20
-0.0787730319141191
 10
1.790237474975723
 20
-0.0600426184681951
210
0.0
220
0.0
230
-1.0
  0
LWPOLYLINE
  5
126
330
70
100
AcDbEntity
  8
Vector Layer 1
 62
    18
420
        0
370
    30
100
AcDbPolyline
 90
       79
 70
     0
 43
0.0
 10
6.376138667778625
 20
-1.385920632519485
 10
6.345099710368268
 20
-1.366165313834362
 10
6.314210059511093
 20
-1.346204387456553
 10
6.283882067447174
 20
-1.325469890560031
 10
6.283882067447175
 20
-1.325469890560031
 10
6.241549262664223
 20
-1.294364624859854
 10
6.200088293089639
 20
-1.262156754873974
 10
6.159413166130305
 20
-1.229028911398309
 10
6.159413166130306
 20
-1.229028911398309
 10
6.106378823065632
 20
-1.183361372084171
 10
6.055035701640164
 20
-1.135913483242168
 10
6.055035701640164
 20
-1.135913483242167
 10
6.01385464144026
 20
-1.095179730370074
 10
5.973673079155907
 20
-1.053499750931111
 10
5.933987399896945
 20
-1.011374516925297
 10
5.933987399896945
 20
-1.011374516925297
 10
5.878994171046985
 20
-0.9515589541586832
 10
5.824837310753756
 20
-0.8910250936241796
 10
5.824837310753756
 20
-0.8910250936241796
 10
5.787553657392038
 20
-0.8487797718980507
 10
5.750807201829965
 20
-0.8060965031160309
 10
5.750807201829966
 20
-0.8060965031160309
 10
5.687608761083748
 20
-0.7296988486099699
 10
5.624986735126471
 20
-0.6528496504986812
 10
5.624986735126471
 20
-0.6528496504986812
 10
5.517808591343017
 20
-0.5263542161815033
 10
5.517808591343017
 20
-0.5263542161815033
 10
5.475687582762658
 20
-0.476766731327299
 10
5.432972641865317
 20
-0.4276707606641402
 10
5.432972641865317
 20
-0.4276707606641402
 10
5.394964926227413
 20
-0.3866256740498782
 10
5.35608397349892
 20
-0.3463522671745251
 10
5.35608397349892
 20
-0.3463522671745251
 10
5.330572305253498
 20
-0.3210178964350844
 10
5.304824861254657
 20
-0.2959046832504128
 10
5.304824861254657
 20
-0.2959046832504129
 10
5.27215164956374
 20
-0.339439728222124
 10
5.239752753675052
 20
-0.3831826684066561
 10
5.206805226181902
 20
-0.4265098181655463
 10
5.172486119677599
 20
-0.4687974918603313
 10
5.1724861196776
 20
-0.4687974918603313
 10
5.139190247122657
 20
-0.5074596318485743
 10
5.105031305165092
 20
-0.5454401219442057
 10
5.069645263778084
 20
-0.5823046313166174
 10
5.032668092934812
 20
-0.6176188291352009
 10
5.032668092934813
 20
-0.6176188291352009
 10
5.001763997773938
 20
-0.6446205318128671
 10
4.969768413488684
 20
-0.6704514619929441
 10
4.936712533337697
 20
-0.6949856008255767
 10
4.902627550579624
 20
-0.7180969294609097
 10
4.902627550579624
 20
-0.7180969294609094
 10
4.877019063368186
 20
-0.7340903427849241
 10
4.850761814971346
 20
-0.7491289219253979
 10
4.823793789422414
 20
-0.7628701039363222
 10
4.796052970754698
 20
-0.7749713258716886
 10
4.796052970754698
 20
-0.7749713258716886
 10
4.768907052502352
 20
-0.7847396553191436
 10
4.741162012640957
 20
-0.7929208954093318
 10
4.71299662133175
 20
-0.7997106035854687
 10
4.684589648735963
 20
-0.8053043372907698
 10
4.684589648735961
 20
-0.8053043372907698
 10
4.656400754854776
 20
-0.8098318324920324
 10
4.62800201389535
 20
-0.813210469585503
 10
4.599490909835287
 20
-0.8150950373402851
 10
4.570964926652192
 20
-0.8151403245254817
 10
4.570964926652192
 20
-0.8151403245254815
 10
4.52857077594107
 20
-0.8121691369178797
 10
4.486393172665723
 20
-0.8064950435278051
 10
4.444562172729209
 20
-0.7985552867658827
 10
4.403207832034592
 20
-0.7887871090427368
 10
4.403207832034591
 20
-0.7887871090427368
 10
4.371238133553061
 20
-0.7795526786924399
 10
4.339785727241694
 20
-0.7686706559093852
 10
4.308784081389934
 20
-0.7565526244861154
 10
4.278166664287226
 20
-0.7436101682151734
 10
4.278166664287226
 20
-0.7436101682151734
 10
4.248864767678515
 20
-0.7296518811623939
 10
4.220175522014217
 20
-0.7144738074735643
 10
4.191486276349916
 20
-0.6992957337847347
210
0.0
220
0.0
230
-1.0
  0
LINE
  5
127
330
70
100
AcDbEntity
  8
Vector Layer 1
 62
    18
420
        0
370
    30
100
AcDbLine
 10
-8.065674242009539
 20
-1.385920632519485
 30
0.0
 11
-7.423506119305746
 21
-1.385920632519485
 31
0.0
  0
LINE
  5
128
330
70
100
AcDbEntity
  8
Vector Layer 1
 62
    18
420
        0
370
    30
100
AcDbLine
 10
-7.31397710892332
 20
-1.385920632519485
 30
0.0
 11
-6.506192720775737
 21
-1.385920632519485
 31
0.0
  0
LINE
  5
129
330
70
100
AcDbEntity
  8
Vector Layer 1
 62
    18
420
        0
370
    30
100
AcDbLine
 10
-6.376138667778625
 20
-1.385920632519485
 30
0.0
 11
-2.568491930996657
 21
-1.385920632519485
 31
0.0
  0
LINE
  5
12A
330
70
100
AcDbEntity
  8
Vector Layer 1
 62
    18
420
        0
370
    30
100
AcDbLine
 10
-6.146549360747269
 20
-0.0600426184681951
 30
0.0
 11
-7.017622530092495
 21
-0.0600426184681951
 31
0.0
  0
LWPOLYLINE
  5
12B
330
70
100
AcDbEntity
  8
Vector Layer 1
 62
    18
420
        0
370
    30
100
AcDbPolyline
 90
       22
 70
     0
 43
0.0
 10
-7.017622530092495
 20
-0.0600426184681951
 10
-6.835739561524055
 20
-0.3754365182001505
 10
-6.835739561524055
 20
-0.3754365182001505
 10
-6.699627652846705
 20
-0.6408714161557924
 10
-6.699627652846705
 20
-0.6408714161557924
 10
-6.657284018449246
 20
-0.6064619959512888
 10
-6.615393616546811
 20
-0.5715478819386899
 10
-6.61539361654681
 20
-0.5715478819386898
 10
-6.576466305860214
 20
-0.5376280696361939
 10
-6.538127564429627
 20
-0.5030850135650998
 10
-6.500954513058428
 20
-0.4673941911355147
 10
-6.500954513058429
 20
-0.4673941911355147
 10
-6.447201932839174
 20
-0.4117733304351533
 10
-6.394996153663657
 20
-0.3547573121945569
 10
-6.343824340563659
 20
-0.2968371487977699
 10
-6.293173658570959
 20
-0.238503852628837
 10
-6.29317365857096
 20
-0.238503852628837
 10
-6.248915137880982
 20
-0.1863313934245253
 10
-6.205490464616093
 20
-0.1334959772352436
 10
-6.162505719114166
 20
-0.0803232019101563
 10
-6.162505719114166
 20
-0.0803232019101563
 10
-6.146549360747269
 20
-0.0600426184681951
  0
LWPOLYLINE
  5
12C
330
70
100
AcDbEntity
  8
Vector Layer 1
 62
    18
420
        0
370
    30
100
AcDbPolyline
 90
       10
 70
     0
 43
0.0
 10
7.146265333749854
 20
-0.0600426184681951
 10
6.95626944663183
 20
-0.3715401368224934
 10
6.95626944663183
 20
-0.3715401368224934
 10
6.778062368120966
 20
-0.7155738669714854
 10
6.778062368120966
 20
-0.7155738669714854
 10
6.629368614811611
 20
-1.053707987389701
 10
6.629368614811611
 20
-1.053707987389701
 10
6.562604767691982
 20
-1.225361691286201
 10
6.562604767691982
 20
-1.225361691286201
 10
6.506192720775737
 20
-1.385920632519485
210
0.0
220
0.0
230
-1.0
  0
LINE
  5
12D
330
70
100
AcDbEntity
  8
Vector Layer 1
 62
    18
420
        0
370
    30
100
AcDbLine
 10
-5.191862280057128
 20
-0.0600426184681951
 30
0.0
 11
-5.890881685289195
 21
-0.0600426184681951
 31
0.0
  0
LWPOLYLINE
  5
12E
330
70
100
AcDbEntity
  8
Vector Layer 1
 62
    18
420
        0
370
    30
100
AcDbPolyline
 90
       33
 70
     0
 43
0.0
 10
-5.890881685289195
 20
-0.0600426184681951
 10
-5.859020642810687
 20
-0.0961874400976584
 10
-5.826688710796221
 20
-0.1319277532521912
 10
-5.82668871079622
 20
-0.1319277532521912
 10
-5.794273403250485
 20
-0.1662643933063125
 10
-5.761299009062489
 20
-0.2000968664611414
 10
-5.727364981323471
 20
-0.2330047377301996
 10
-5.727364981323471
 20
-0.2330047377301996
 10
-5.695586453985393
 20
-0.261674323891611
 10
-5.662977260392105
 20
-0.2894728705604248
 10
-5.629892004573824
 20
-0.3167371509072485
 10
-5.629892004573826
 20
-0.3167371509072485
 10
-5.602475508274667
 20
-0.3386914744654869
 10
-5.574369422881
 20
-0.3597995348268731
 10
-5.574369422880999
 20
-0.359799534826873
 10
-5.557619504382661
 20
-0.3711307723818046
 10
-5.540647392666191
 20
-0.3821604517092477
 10
-5.54064739266619
 20
-0.3821604517092477
 10
-5.531624888175042
 20
-0.3718229888134412
 10
-5.531624888175042
 20
-0.3718229888134412
 10
-5.496300299404865
 20
-0.3318780603717535
 10
-5.460461370258042
 20
-0.2923684177867392
 10
-5.423433522763247
 20
-0.2539316068030019
 10
-5.423433522763247
 20
-0.2539316068030019
 10
-5.38699224557692
 20
-0.2189122827808336
 10
-5.349474736268366
 20
-0.1849554368798624
 10
-5.311215497560248
 20
-0.1517896830602919
 10
-5.311215497560248
 20
-0.1517896830602919
 10
-5.275387425600786
 20
-0.1223022450047224
 10
-5.238690310966163
 20
-0.093830079820244
 10
-5.238690310966162
 20
-0.093830079820244
 10
-5.2153941513014
 20
-0.0767720908972224
 10
-5.191863057110078
 20
-0.0600426184681951
  0
LWPOLYLINE
  5
12F
330
70
100
AcDbEntity
  8
Vector Layer 1
 62
    18
420
        0
370
    30
100
AcDbPolyline
 90
       49
 70
     0
 43
0.0
 10
-4.975853158087672
 20
-0.0600426184681951
 10
-5.003302476364694
 20
-0.0742135535755811
 10
-5.03066163934734
 20
-0.0885301899314112
 10
-5.057332468191073
 20
-0.1039617499753591
 10
-5.057332468191074
 20
-0.1039617499753591
 10
-5.095600042217286
 20
-0.1289284546023574
 10
-5.132955436435792
 20
-0.1551987038281416
 10
-5.169567845428467
 20
-0.1824629815236552
 10
-5.205606463777188
 20
-0.2104117715598415
 10
-5.205606463777188
 20
-0.2104117715598415
 10
-5.218294426960807
 20
-0.2206139030401117
 10
-5.218294426960807
 20
-0.2206139030401117
 10
-5.182917216045238
 20
-0.2662083173800171
 10
-5.147064660269822
 20
-0.311444995123844
 10
-5.147064660269821
 20
-0.311444995123844
 10
-5.116366604614157
 20
-0.3490932981282591
 10
-5.085438343050903
 20
-0.3865774499879304
 10
-5.053790852947073
 20
-0.4234637320825645
 10
-5.020935111669682
 20
-0.4593184257918676
 10
-5.020935111669682
 20
-0.4593184257918678
 10
-4.994340084349834
 20
-0.4866491327813095
 10
-4.967039225531443
 20
-0.5133468613069932
 10
-4.938820479277487
 20
-0.5390978037633876
 10
-4.909471789650944
 20
-0.5635881525449617
 10
-4.909471789650944
 20
-0.5635881525449616
 10
-4.880403258359183
 20
-0.5855357316161194
 10
-4.850121633127733
 20
-0.605916662410917
 10
-4.81854118484619
 20
-0.6242541753831251
 10
-4.818541184846189
 20
-0.6242541753831251
 10
-4.790734372434763
 20
-0.6383873038465559
 10
-4.762239812280398
 20
-0.6512848556620529
 10
-4.733052359465486
 20
-0.662515899923665
 10
-4.703166869072419
 20
-0.6716495057254411
 10
-4.703166869072419
 20
-0.6716495057254411
 10
-4.673360080972368
 20
-0.6784474492658729
 10
-4.643076889934157
 20
-0.683293825109905
 10
-4.612528486863491
 20
-0.6861096676890903
 10
-4.581926062666076
 20
-0.6868160114349817
 10
-4.581926062666074
 20
-0.6868160114349817
 10
-4.543593400043491
 20
-0.684914022557833
 10
-4.505412553679456
 20
-0.6803183218777951
 10
-4.467600709806751
 20
-0.6732840263352726
 10
-4.430375054658155
 20
-0.6640662528706702
 10
-4.430375054658155
 20
-0.6640662528706703
 10
-4.404025733961139
 20
-0.6554966615411246
 10
-4.378328435413364
 20
-0.6451468844162746
 10
-4.353003720950869
 20
-0.6337798582655364
 10
-4.327772152509694
 20
-0.622158519858326
 10
-4.302354292025876
 20
-0.6110458059640598
  0
LWPOLYLINE
  5
130
330
70
100
AcDbEntity
  8
Vector Layer 1
 62
    18
420
        0
370
    30
100
AcDbPolyline
 90
       90
 70
     0
 43
0.0
 10
-4.760087439350468
 20
-0.0600426184681951
 10
-4.686005375766009
 20
-0.1484352499328099
 10
-4.611937160977026
 20
-0.2368386565354958
 10
-4.538478085340352
 20
-0.3257148673501126
 10
-4.538478085340351
 20
-0.3257148673501126
 10
-4.50226680609041
 20
-0.370873015229962
 10
-4.466364333111854
 20
-0.4162659527243243
 10
-4.429948008637903
 20
-0.4612655121291348
 10
-4.429948008637903
 20
-0.4612655121291349
 10
-4.394043016888844
 20
-0.5057381135675757
 10
-4.358009254897465
 20
-0.550111403711616
 10
-4.358009254897466
 20
-0.550111403711616
 10
-4.337342080805985
 20
-0.5741778639234915
 10
-4.315812363559289
 20
-0.597521821718201
 10
-4.31581236355929
 20
-0.597521821718201
 10
-4.297782436586754
 20
-0.615453003102132
 10
-4.297782436586754
 20
-0.6154530031021322
 10
-4.269974989833392
 20
-0.6403358348029621
 10
-4.240777774383082
 20
-0.6637413405276371
 10
-4.210570067833366
 20
-0.6859676224602377
 10
-4.179731147781785
 20
-0.7073127827848453
 10
-4.179731147781786
 20
-0.707312782784845
 10
-4.148061329074785
 20
-0.7278962728361498
 10
-4.115467509291226
 20
-0.7471009261794741
 10
-4.081872842588185
 20
-0.7645369078330927
 10
-4.081872842588186
 20
-0.7645369078330927
 10
-4.055843564298108
 20
-0.7763508466732425
 10
-4.029175301842215
 20
-0.7867768896788583
 10
-4.001877561358503
 20
-0.7954078173985937
 10
-4.001877561358503
 20
-0.7954078173985937
 10
-3.971487482625055
 20
-0.803036404790453
 10
-3.940702419844589
 20
-0.8092092367837079
 10
-3.909632962492146
 20
-0.8137520021809546
 10
-3.878389700042767
 20
-0.8164903897847899
 10
-3.878389700042767
 20
-0.8164903897847899
 10
-3.841020092722963
 20
-0.8175494082399561
 10
-3.803587480251164
 20
-0.81650617259903
 10
-3.766276623315701
 20
-0.8133844357630538
 10
-3.729272282604904
 20
-0.80820795063307
 10
-3.729272282604904
 20
-0.80820795063307
 10
-3.701276522961408
 20
-0.8023825640939087
 10
-3.673683622098775
 20
-0.7948085837474391
 10
-3.646405879615247
 20
-0.786077930530241
 10
-3.619355595109067
 20
-0.776782525378895
 10
-3.619355595109067
 20
-0.7767825253788949
 10
-3.58160695371091
 20
-0.7626354522731306
 10
-3.544426448884047
 20
-0.7470823932185815
 10
-3.507627604950609
 20
-0.7306998900159043
 10
-3.507627604950609
 20
-0.7306998900159043
 10
-3.484159658701122
 20
-0.7193422763505587
 10
-3.460891568323277
 20
-0.7075879473810472
 10
-3.460891568323278
 20
-0.7075879473810472
 10
-3.449399009782262
 20
-0.7181251706416593
 10
-3.437828597944436
 20
-0.7287315886954905
 10
-3.425857584759057
 20
-0.7387256043295336
 10
-3.425857584759057
 20
-0.7387256043295337
 10
-3.396622225630325
 20
-0.7601383137487858
 10
-3.366170718262787
 20
-0.7803541014952277
 10
-3.335040383152852
 20
-0.7990955132102498
 10
-3.335040383152852
 20
-0.7990955132102496
 10
-3.305908393195765
 20
-0.8152530752364961
 10
-3.27602416191502
 20
-0.830641398388893
 10
-3.245573309502902
 20
-0.8449099512579515
 10
-3.214741456151699
 20
-0.8577082024341828
 10
-3.2147414561517
 20
-0.857708202434183
 10
-3.182493762799396
 20
-0.8694496356458103
 10
-3.149490598999694
 20
-0.8799721465794874
 10
-3.116035759570412
 20
-0.8889973806015115
 10
-3.082433039329366
 20
-0.8962469830781794
 10
-3.082433039329365
 20
-0.8962469830781792
 10
-3.041403317650681
 20
-0.9028300501976399
 10
-2.999717608548708
 20
-0.9074248610032022
 10
-2.957846323051216
 20
-0.9100107641814492
 10
-2.916259872185973
 20
-0.9105671084189641
 10
-2.916259872185973
 20
-0.9105671084189641
 10
-2.888736947244378
 20
-0.9093385800321836
 10
-2.861088730822183
 20
-0.9066012877054506
 10
-2.833532899668766
 20
-0.9028516681384916
 10
-2.806287130533501
 20
-0.8985861580310324
 10
-2.806287130533501
 20
-0.8985861580310324
 10
-2.777795193144518
 20
-0.8932160904102714
 10
-2.74962588385868
 20
-0.8864276274364019
 10
-2.749625883858679
 20
-0.8864276274364021
 10
-2.716837640996664
 20
-0.8774987815482047
 10
-2.684014999613326
 20
-0.8678662638718659
 10
-2.651532978650921
 20
-0.8570626962459833
 10
-2.619766597051703
 20
-0.844620700509154
 10
-2.619766597051704
 20
-0.844620700509154
 10
-2.593670218838562
 20
-0.8325321403330093
 10
-2.56849193099666
 20
-0.8187085082002097
  0
LINE
  5
131
330
70
100
AcDbEntity
  8
Vector Layer 1
 62
    18
420
        0
370
    30
100
AcDbLine
 10
-4.760087439350468
 20
-0.0600426184681951
 30
0.0
 11
-4.975853158087672
 21
-0.0600426184681951
 31
0.0
  0
LWPOLYLINE
  5
132
330
70
100
AcDbEntity
  8
Vector Layer 1
 62
    18
420
        0
370
    30
100
AcDbPolyline
 90
       63
 70
     0
 43
0.0
 10
-4.60208888183711
 20
-0.0600426184681951
 10
-4.514113556954841
 20
-0.1711784703985197
 10
-4.514113556954841
 20
-0.1711784703985197
 10
-4.471915523697987
 20
-0.2262555376865002
 10
-4.429257350966854
 20
-0.2809926878757811
 10
-4.429257350966854
 20
-0.2809926878757811
 10
-4.388875461306073
 20
-0.3315036477039614
 10
-4.347929416617719
 20
-0.3815835373132115
 10
-4.30561213663524
 20
-0.4305527903635517
 10
-4.30561213663524
 20
-0.4305527903635518
 10
-4.280274362128205
 20
-0.4585688191574367
 10
-4.254469985558341
 20
-0.4862025917554612
 10
-4.227863458222829
 20
-0.5130749757736841
 10
-4.200119231418846
 20
-0.538806838828164
 10
-4.200119231418845
 20
-0.5388068388281641
 10
-4.177930737890248
 20
-0.5573081107674526
 10
-4.154784376717646
 20
-0.5747053441067438
 10
-4.130851549832363
 20
-0.5910497217541661
 10
-4.130851549832363
 20
-0.5910497217541662
 10
-4.097313827184427
 20
-0.6120702653918554
 10
-4.062807912633957
 20
-0.6315869967790871
 10
-4.027209397339057
 20
-0.6490643223125502
 10
-4.027209397339058
 20
-0.6490643223125502
 10
-4.006361651609307
 20
-0.658092772711229
 10
-3.985135529923932
 20
-0.6663351940501985
 10
-3.963508456236942
 20
-0.6734182878397231
 10
-3.941457854502346
 20
-0.6789687555900671
 10
-3.941457854502346
 20
-0.6789687555900668
 10
-3.914776986280539
 20
-0.683498311107238
 10
-3.887779122293449
 20
-0.6862074285832779
 10
-3.860630480532344
 20
-0.6873905198921385
 10
-3.833497278988494
 20
-0.687341996907772
 10
-3.833497278988494
 20
-0.687341996907772
 10
-3.79663877926917
 20
-0.6853180214409235
 10
-3.759960237429582
 20
-0.6808842195833962
 10
-3.723685950751551
 20
-0.6741840462656644
 10
-3.72368595075155
 20
-0.6741840462656642
 10
-3.688274712035869
 20
-0.6657400169833214
 10
-3.653262250559598
 20
-0.6556966296622152
 10
-3.618846722951875
 20
-0.6439241203710365
 10
-3.585226285841835
 20
-0.6302927251784761
 10
-3.585226285841835
 20
-0.6302927251784758
 10
-3.57564277852108
 20
-0.625363303893849
 10
-3.566429202261153
 20
-0.6197467895615568
 10
-3.557214824763802
 20
-0.6141298001450512
 10
-3.557214824763803
 20
-0.6141298001450512
 10
-3.569145684028886
 20
-0.601518130937348
 10
-3.569145684028886
 20
-0.6015181309373481
 10
-3.59882997518533
 20
-0.5680443460975897
 10
-3.627460797262862
 20
-0.5336978998269305
 10
-3.655670231708827
 20
-0.499002388983911
 10
-3.68409035997057
 20
-0.4644814104270716
 10
-3.68409035997057
 20
-0.4644814104270717
 10
-3.728977279025272
 20
-0.4090166375656711
 10
-3.774182133005954
 20
-0.3537979053995413
 10
-3.774182133005954
 20
-0.3537979053995413
 10
-3.825847435067426
 20
-0.2931994767583456
 10
-3.877477010710299
 20
-0.2325731141789119
 10
-3.877477010710298
 20
-0.2325731141789119
 10
-3.942895532058608
 20
-0.1530086162443737
 10
-4.006804695359992
 20
-0.0729439672155361
 10
-4.006804695359993
 20
-0.072943967215536
 10
-4.016578318799012
 20
-0.0600426184681951
  0
LWPOLYLINE
  5
133
330
70
100
AcDbEntity
  8
Vector Layer 1
 62
    18
420
        0
370
    30
100
AcDbPolyline
 90
       52
 70
     0
 43
0.0
 10
-3.872779169196684
 20
-0.0600426184681951
 10
-3.861250735098752
 20
-0.0734157012893885
 10
-3.861250735098752
 20
-0.0734157012893885
 10
-3.801163149053371
 20
-0.1428230757064905
 10
-3.741571408092849
 20
-0.212629538641073
 10
-3.741571408092849
 20
-0.212629538641073
 10
-3.694069919875909
 20
-0.2704232338658036
 10
-3.647206889973328
 20
-0.3287165494329493
 10
-3.600135993685911
 20
-0.3868435328564997
 10
-3.552010906314466
 20
-0.4441382316504447
 10
-3.552010906314466
 20
-0.4441382316504446
 10
-3.529706666261636
 20
-0.4703781321623552
 10
-3.507530275074539
 20
-0.4967846844454517
 10
-3.485122463346686
 20
-0.5229983296995242
 10
-3.462123961671586
 20
-0.5486595091243622
 10
-3.43817550064275
 20
-0.5734086639197557
 10
-3.412917810853687
 20
-0.596886235285494
 10
-3.412917810853687
 20
-0.596886235285494
 10
-3.38891731402994
 20
-0.6165248330547457
 10
-3.363818853098584
 20
-0.6348745082748884
 10
-3.337919152147315
 20
-0.6522356285705567
 10
-3.311514935263826
 20
-0.668908561566385
 10
-3.284902926535811
 20
-0.6851936748870076
 10
-3.284902926535811
 20
-0.6851936748870076
 10
-3.263692530177994
 20
-0.6979667291106764
 10
-3.242174403655575
 20
-0.7102888385272265
 10
-3.220171844374791
 20
-0.7216984679630557
 10
-3.197508149741879
 20
-0.7317340822445614
 10
-3.19750814974188
 20
-0.7317340822445613
 10
-3.165718050697916
 20
-0.743720640098998
 10
-3.133379249845322
 20
-0.7544351439878993
 10
-3.100564364270214
 20
-0.7636910753074977
 10
-3.067346011058704
 20
-0.7713019154540261
 10
-3.033796807296906
 20
-0.7770811458237171
 10
-3.033796807296906
 20
-0.7770811458237171
 10
-2.988774945413963
 20
-0.7819755482553852
 10
-2.94341904874049
 20
-0.7839531000231701
 10
-2.898016002511745
 20
-0.783091346580428
 10
-2.852852691962985
 20
-0.7794678333805149
 10
-2.852852691962985
 20
-0.7794678333805149
 10
-2.814608781880906
 20
-0.7738443367432908
 10
-2.776766007667183
 20
-0.7657430307418692
 10
-2.739423748950445
 20
-0.7555540477217792
 10
-2.702681385359322
 20
-0.7436675200285495
 10
-2.702681385359322
 20
-0.7436675200285495
 10
-2.677313074983956
 20
-0.7346230194724555
 10
-2.652278138695328
 20
-0.7248006697800758
 10
-2.627916000387525
 20
-0.7134673014695228
 10
-2.627916000387525
 20
-0.7134673014695226
 10
-2.608899882902056
 20
-0.7027712867852137
 10
-2.608899882902056
 20
-0.7027712867852137
 10
-2.607247589934874
 20
-0.7017252649945491
  0
LINE
  5
134
330
70
100
AcDbEntity
  8
Vector Layer 1
 62
    18
420
        0
370
    30
100
AcDbLine
 10
-3.231023766827003
 20
-0.0600426184681951
 30
0.0
 11
-3.872779169196684
 21
-0.0600426184681951
 31
0.0
  0
LINE
  5
135
330
70
100
AcDbEntity
  8
Vector Layer 1
 62
    18
420
        0
370
    30
100
AcDbLine
 10
-4.016582447338658
 20
-0.0600426184681951
 30
0.0
 11
-4.60208888183711
 21
-0.0600426184681951
 31
0.0
  0
LINE
  5
136
330
70
100
AcDbEntity
  8
Vector Layer 1
 62
    18
420
        0
370
    30
100
AcDbLine
 10
-7.148360843479482
 20
0.060815483029374
 30
0.0
 11
-7.936917176515549
 21
0.060815483029374
 31
0.0
  0
LINE
  5
137
330
70
100
AcDbEntity
  8
Vector Layer 1
 62
    18
420
        0
370
    30
100
AcDbLine
 10
-7.146265333749854
 20
-0.0600426184681951
 30
0.0
 11
-7.934935928622548
 21
-0.0600426184681951
 31
0.0
  0
LINE
  5
138
330
70
100
AcDbEntity
  8
Vector Layer 1
 62
    18
420
        0
370
    30
100
AcDbLine
 10
-8.063578732279882
 20
-0.0600426184681951
 30
0.0
 11
-8.065674242009539
 21
-0.0600426184681951
 31
0.0
  0
LWPOLYLINE
  5
139
330
70
100
AcDbEntity
  8
Vector Layer 1
 62
    18
420
        0
370
    30
100
AcDbPolyline
 90
       10
 70
     0
 43
0.0
 10
7.934935928622548
 20
-0.0600426184681951
 10
7.753052960054118
 20
-0.3754365182001505
 10
7.753052960054118
 20
-0.3754365182001505
 10
7.576420926920085
 20
-0.7198906232539589
 10
7.576420926920085
 20
-0.7198906232539589
 10
7.432691901273194
 20
-1.052605842257013
 10
7.432691901273194
 20
-1.052605842257013
 10
7.365227256581808
 20
-1.225124844703041
 10
7.365227256581808
 20
-1.225124844703041
 10
7.31397710892332
 20
-1.385920632519485
210
0.0
220
0.0
230
-1.0
  0
LWPOLYLINE
  5
13A
330
70
100
AcDbEntity
  8
Vector Layer 1
 62
    18
420
        0
370
    30
100
AcDbPolyline
 90
       10
 70
     0
 43
0.0
 10
8.063578732279882
 20
-0.0600426184681951
 10
7.873582845161885
 20
-0.3715401368224934
 10
7.873582845161885
 20
-0.3715401368224934
 10
7.695375766651002
 20
-0.7155738669714854
 10
7.695375766651002
 20
-0.7155738669714854
 10
7.54668201334163
 20
-1.053707987389701
 10
7.54668201334163
 20
-1.053707987389701
 10
7.479918166222017
 20
-1.225361691286201
 10
7.479918166222017
 20
-1.225361691286201
 10
7.423506119305746
 20
-1.385920632519485
210
0.0
220
0.0
230
-1.0
  0
LINE
  5
13B
330
70
100
AcDbEntity
  8
Vector Layer 1
 62
    18
420
        0
370
    30
100
AcDbLine
 10
-4.592064592593143
 20
3.447956748365054
 30
0.0
 11
-4.592064592593143
 21
8.447956748364806
 31
0.0
  0
LINE
  5
13C
330
70
100
AcDbEntity
  8
Vector Layer 1
 62
    18
420
        0
370
    30
100
AcDbLine
 10
-4.603732664329314
 20
8.447956748365054
 30
0.0
 11
-4.603583115690184
 21
8.447956748365054
 31
0.0
  0
LINE
  5
13D
330
70
100
AcDbEntity
  8
Vector Layer 1
 62
    18
420
        0
370
    30
100
AcDbLine
 10
-5.323145713064084
 20
8.225915575954061
 30
0.0
 11
-5.323132066719598
 21
8.225927638418518
 31
0.0
  0
LWPOLYLINE
  5
13E
330
70
100
AcDbEntity
  8
Vector Layer 1
 62
    18
420
        0
370
    30
100
AcDbPolyline
 90
       36
 70
     0
 43
0.0
 10
-5.339610154056472
 20
8.190904943129869
 10
-5.339052880698783
 20
8.192755037632839
 10
-5.339052880698783
 20
8.192755037632839
 10
-5.338577408534781
 20
8.194333559959098
 10
-5.338577408534781
 20
8.194333559959098
 10
-5.333623130065696
 20
8.203957654161992
 10
-5.333623130065696
 20
8.203957654161992
 10
-5.329031687046519
 20
8.209566710437137
 10
-5.329031687046519
 20
8.209566710437137
 10
-5.328979136932186
 20
8.209630907367673
 10
-5.328979136932186
 20
8.209630907367673
 10
-5.328525562030569
 20
8.210185009234452
 10
-5.328525562030569
 20
8.210185009234452
 10
-5.324554868655616
 20
8.213557166335148
 10
-5.324554868655616
 20
8.213557166335148
 10
-5.322280400558781
 20
8.215488784573771
 10
-5.322280400558781
 20
8.215488784573771
 10
-5.321859497768179
 20
8.21584624111851
 10
-5.321859497768179
 20
8.21584624111851
 10
-5.314632494193809
 20
8.220375226625755
 10
-5.314632494193809
 20
8.220375226625755
 10
-5.173475641948481
 20
8.231697690393868
 10
-5.173475641948481
 20
8.231697690393868
 10
-5.168859083396692
 20
8.233396059959083
 10
-5.168859083396692
 20
8.233396059959083
 10
-5.160175521117945
 20
8.238491168654736
 10
-5.160175521117945
 20
8.238491168654736
 10
-5.152948159915705
 20
8.244718523727195
 10
-5.152948159915705
 20
8.244718523727195
 10
-5.144655782920618
 20
8.254342617930092
 10
-5.144655782920618
 20
8.254342617930092
 10
-5.138561207992334
 20
8.265665081698204
 10
-5.138561207992334
 20
8.265665081698204
 10
-5.135072846156854
 20
8.276987545466315
 10
-5.135072846156854
 20
8.276987545466315
 10
-5.135033328277369
 20
8.447956748364806
  0
LINE
  5
13F
330
70
100
AcDbEntity
  8
Vector Layer 1
 62
    18
420
        0
370
    30
100
AcDbLine
 10
-4.603583115690187
 20
3.447956748365054
 30
0.0
 11
-4.603732664329314
 21
3.447956748365054
 31
0.0
  0
LINE
  5
140
330
70
100
AcDbEntity
  8
Vector Layer 1
 62
    18
420
        0
370
    30
100
AcDbLine
 10
-5.335802504828039
 20
3.717709621409977
 30
0.0
 11
-5.335646311572062
 21
3.718094041570056
 31
0.0
  0
POLYLINE
  5
141
330
70
100
AcDbEntity
  8
Vector Layer 1
 62
    18
420
        0
370
    30
100
AcDb3dPolyline
 66
     1
 10
0.0
 20
0.0
 30
0.0
 70
     8
  0
VERTEX
  5
142
330
141
100
AcDbEntity
  8
0
 62
    18
420
        0
100
AcDbVertex
100
AcDb3dPolylineVertex
 10
-5.27967457025684
 20
3.665794083334351
 30
0.0
 70
    32
  0
VERTEX
  5
143
330
141
100
AcDbEntity
  8
0
 62
    18
420
        0
100
AcDbVertex
100
AcDb3dPolylineVertex
 10
-5.279826088524144
 20
3.62594373987012
 30
0.0
 70
    32
  0
VERTEX
  5
144
330
141
100
AcDbEntity
  8
0
 62
    18
420
        0
100
AcDbVertex
100
AcDb3dPolylineVertex
 10
-5.28037790226804
 20
3.480812940702039
 30
0.0
 70
    32
  0
VERTEX
  5
145
330
141
100
AcDbEntity
  8
0
 62
    18
420
        0
100
AcDbVertex
100
AcDb3dPolylineVertex
 10
-5.280502781314656
 20
3.447968894982926
 30
0.0
 70
    32
  0
SEQEND
  5
146
330
141
100
AcDbEntity
  8
Vector Layer 1
 62
    18
420
        0
370
    30
  0
POLYLINE
  5
147
330
70
100
AcDbEntity
  8
Vector Layer 1
 62
    18
420
        0
370
    30
100
AcDb3dPolyline
 66
     1
 10
0.0
 20
0.0
 30
0.0
 70
     8
  0
VERTEX
  5
148
330
147
100
AcDbEntity
  8
0
 62
    18
420
        0
100
AcDbVertex
100
AcDb3dPolylineVertex
 10
-5.26149191640798
 20
8.447956748364806
 30
0.0
 70
    32
  0
VERTEX
  5
149
330
147
100
AcDbEntity
  8
0
 62
    18
420
        0
100
AcDbVertex
100
AcDb3dPolylineVertex
 10
-5.262172711934418
 20
8.268902855791328
 30
0.0
 70
    32
  0
VERTEX
  5
14A
330
147
100
AcDbEntity
  8
0
 62
    18
420
        0
100
AcDbVertex
100
AcDb3dPolylineVertex
 10
-5.262341275027225
 20
8.224569606317469
 30
0.0
 70
    32
  0
SEQEND
  5
14B
330
147
100
AcDbEntity
  8
Vector Layer 1
 62
    18
420
        0
370
    30
  0
LINE
  5
14C
330
70
100
AcDbEntity
  8
Vector Layer 1
 62
    18
420
        0
370
    30
100
AcDbLine
 10
-5.135311516166385
 20
8.447956748364806
 30
0.0
 11
-5.135070256435616
 21
8.288191653120096
 31
0.0
  0
LINE
  5
14D
330
70
100
AcDbEntity
  8
Vector Layer 1
 62
    18
420
        0
370
    30
100
AcDbLine
 10
-5.341175998529763
 20
8.182919227064022
 30
0.0
 11
-5.339610154056472
 21
8.190904943129869
 31
0.0
  0
LWPOLYLINE
  5
14E
330
70
100
AcDbEntity
  8
Vector Layer 1
 62
    18
420
        0
370
    30
100
AcDbPolyline
 90
      310
 70
     0
 43
0.0
 10
-5.341401466498502
 20
3.717172694798268
 10
-5.341299611680913
 20
3.723092617930177
 10
-5.341299611680913
 20
3.723092617930177
 10
-5.328488606565407
 20
3.881607110683746
 10
-5.328488606565407
 20
3.881607110683746
 10
-5.313857215993812
 20
4.062766530973564
 10
-5.313857215993812
 20
4.062766530973564
 10
-5.300959784143379
 20
4.222413270104004
 10
-5.300959784143379
 20
4.222413270104004
 10
-5.28713627492707
 20
4.393382473002562
 10
-5.28713627492707
 20
4.393382473002562
 10
-5.283844608419349
 20
4.434143342567781
 10
-5.283844608419349
 20
4.434143342567781
 10
-5.282050568216256
 20
4.445465806335898
 10
-5.282050568216256
 20
4.445465806335898
 10
-5.277726430051735
 20
4.456222146915608
 10
-5.277726430051735
 20
4.456222146915608
 10
-5.27270688449662
 20
4.463581748364884
 10
-5.27270688449662
 20
4.463581748364884
 10
-5.266437071912696
 20
4.469809103437349
 10
-5.266437071912696
 20
4.469809103437349
 10
-5.260104197614602
 20
4.474338088944595
 10
-5.260104197614602
 20
4.474338088944595
 10
-5.25074734126847
 20
4.478867074451841
 10
-5.25074734126847
 20
4.478867074451841
 10
-5.096022147291122
 20
4.484528306335899
 10
-5.096022147291122
 20
4.484528306335899
 10
-5.088241178148209
 20
4.485094429524306
 10
-5.088241178148209
 20
4.485094429524306
 10
-5.086960125320374
 20
4.498115262857639
 10
-5.086960125320374
 20
4.498115262857639
 10
-5.08470864927095
 20
4.507173233872133
 10
-5.08470864927095
 20
4.507173233872133
 10
-5.081121582143723
 20
4.513966712133002
 10
-5.081121582143723
 20
4.513966712133002
 10
-5.076445985191283
 20
4.519627944017059
 10
-5.076445985191283
 20
4.519627944017059
 10
-5.070013660543381
 20
4.524723052712713
 10
-5.070013660543381
 20
4.524723052712713
 10
-5.056087541931091
 20
4.529818161408364
 10
-5.056087541931091
 20
4.529818161408364
 10
-4.960869688146533
 20
4.535479393292423
 10
-4.960869688146533
 20
4.535479393292423
 10
-4.954623896234455
 20
4.536611639669235
 10
-4.954623896234455
 20
4.536611639669235
 10
-4.944282967203083
 20
4.542272871553293
 10
-4.944282967203083
 20
4.542272871553293
 10
-4.936323780172291
 20
4.548500226625757
 10
-4.936323780172291
 20
4.548500226625757
 10
-4.930422234886112
 20
4.554727581698221
 10
-4.930422234886112
 20
4.554727581698221
 10
-4.923896003120364
 20
4.56435167590112
 10
-4.923896003120364
 20
4.56435167590112
 10
-4.920083988063758
 20
4.572843523727206
 10
-4.920083988063758
 20
4.572843523727206
 10
-4.917064327352469
 20
4.58303374111851
 10
-4.917064327352469
 20
4.58303374111851
 10
-4.892698723428671
 20
4.710977581698226
 10
-4.892698723428671
 20
4.710977581698226
 10
-4.891455161922401
 20
4.721733922277937
 10
-4.891455161922401
 20
4.721733922277937
 10
-4.891868371122306
 20
4.730225770104024
 10
-4.891868371122306
 20
4.730225770104024
 10
-4.894476610773033
 20
4.740415987495328
 10
-4.894476610773033
 20
4.740415987495328
 10
-4.897674966209357
 20
4.747209465756199
 10
-4.897674966209357
 20
4.747209465756199
 10
-4.904772478692954
 20
4.756833559959098
 10
-4.904772478692954
 20
4.756833559959098
 10
-4.911176282518332
 20
4.762494791843156
 10
-4.911176282518332
 20
4.762494791843156
 10
-4.919900554769462
 20
4.767589900538808
 10
-4.919900554769462
 20
4.767589900538808
 10
-5.013817596786442
 20
4.773251132422867
 10
-5.013817596786442
 20
4.773251132422867
 10
-5.020270753257693
 20
4.774383378799679
 10
-5.020270753257693
 20
4.774383378799679
 10
-5.03370534216684
 20
4.778912364306926
 10
-5.03370534216684
 20
4.778912364306926
 10
-5.042799371831833
 20
4.785139719379389
 10
-5.042799371831833
 20
4.785139719379389
 10
-5.049250114314971
 20
4.791933197640259
 10
-5.049250114314971
 20
4.791933197640259
 10
-5.053411442392288
 20
4.798160552712723
 10
-5.053411442392288
 20
4.798160552712723
 10
-5.05747847592157
 20
4.807784646915622
 10
-5.05747847592157
 20
4.807784646915622
 10
-5.059069651716171
 20
4.81627649474171
 10
-5.059069651716171
 20
4.81627649474171
 10
-5.05930142437738
 20
4.826466712133014
 10
-5.05930142437738
 20
4.826466712133014
 10
-5.04569794570726
 20
4.987811820828672
 10
-5.04569794570726
 20
4.987811820828672
 10
-5.031925279252945
 20
5.150855299089547
 10
-5.031925279252945
 20
5.150855299089547
 10
-5.018522638433399
 20
5.309369791843177
 10
-5.018522638433399
 20
5.309369791843177
 10
-5.016397852056446
 20
5.32239062517651
 10
-5.016397852056446
 20
5.32239062517651
 10
-5.01276050841135
 20
5.330882473002599
 10
-5.01276050841135
 20
5.330882473002599
 10
-5.007374900930347
 20
5.339374320828685
 10
-5.007374900930347
 20
5.339374320828685
 10
-5.001212078683796
 20
5.34560167590115
 10
-5.001212078683796
 20
5.34560167590115
 10
-4.994208056085528
 20
5.350696784596802
 10
-4.994208056085528
 20
5.350696784596802
 10
-4.978505659454287
 20
5.356358016480861
 10
-4.978505659454287
 20
5.356358016480861
 10
-4.824808228366798
 20
5.362019248364919
 10
-4.824808228366798
 20
5.362019248364919
 10
-4.820056397073692
 20
5.363151494741731
 10
-4.820056397073692
 20
5.363151494741731
 10
-4.811592030876108
 20
5.368246603437382
 10
-4.811592030876108
 20
5.368246603437382
 10
-4.804775807612369
 20
5.374473958509847
 10
-4.804775807612369
 20
5.374473958509847
 10
-4.799547422283121
 20
5.381267436770716
 10
-4.799547422283121
 20
5.381267436770716
 10
-4.796256307118365
 20
5.387494791843181
 10
-4.796256307118365
 20
5.387494791843181
 10
-4.793211299531885
 20
5.397118886046079
 10
-4.793211299531885
 20
5.397118886046079
 10
-4.791466820590922
 20
5.412970335321443
 10
-4.791466820590922
 20
5.412970335321443
 10
-4.785049203389117
 20
5.503550045466373
 10
-4.785049203389117
 20
5.503550045466373
 10
-4.779564592593142
 20
5.599790987495363
 10
-4.779564592593142
 20
5.599790987495363
 10
-4.780012208574245
 20
5.611113451263479
 10
-4.780012208574245
 20
5.611113451263479
 10
-4.78327197169585
 20
5.622435915031595
 10
-4.78327197169585
 20
5.622435915031595
 10
-4.787295493834445
 20
5.629795516480871
 10
-4.787295493834445
 20
5.629795516480871
 10
-4.793749857299754
 20
5.637721241118553
 10
-4.793749857299754
 20
5.637721241118553
 10
-4.80278362666888
 20
5.645080842567828
 10
-4.80278362666888
 20
5.645080842567828
 10
-4.816307965271899
 20
5.650742074451887
 10
-4.816307965271899
 20
5.650742074451887
 10
-4.910766440980857
 20
5.656403306335945
 10
-4.910766440980857
 20
5.656403306335945
 10
-4.921907383554404
 20
5.662064538220003
 10
-4.921907383554404
 20
5.662064538220003
 10
-4.929201293342532
 20
5.668291893292466
 10
-4.929201293342532
 20
5.668291893292466
 10
-4.934254604928913
 20
5.674519248364931
 10
-4.934254604928913
 20
5.674519248364931
 10
-4.939590651147784
 20
5.684709465756235
 10
-4.939590651147784
 20
5.684709465756235
 10
-4.941678750865878
 20
5.692069067205511
 10
-4.941678750865878
 20
5.692069067205511
 10
-4.94284816419405
 20
5.702825407785221
 10
-4.94284816419405
 20
5.702825407785221
 10
-4.942866552226962
 20
5.956448596191017
 10
-4.942866552226962
 20
5.956448596191017
 10
-4.942866373413028
 20
6.182897871553335
 10
-4.942866373413028
 20
6.182897871553335
 10
-4.942337590806904
 20
6.194220335321451
 10
-4.942337590806904
 20
6.194220335321451
 10
-4.941263664119663
 20
6.20101381358232
 10
-4.941263664119663
 20
6.20101381358232
 10
-4.937355596177997
 20
6.211204030973625
 10
-4.937355596177997
 20
6.211204030973625
 10
-4.933137226455631
 20
6.217997509234495
 10
-4.933137226455631
 20
6.217997509234495
 10
-4.92736445700449
 20
6.224224864306959
 10
-4.92736445700449
 20
6.224224864306959
 10
-4.920831430309242
 20
6.229319973002612
 10
-4.920831430309242
 20
6.229319973002612
 10
-4.912254619949287
 20
6.233848958509858
 10
-4.912254619949287
 20
6.233848958509858
 10
-4.819296452753967
 20
6.239510190393915
 10
-4.819296452753967
 20
6.239510190393915
 10
-4.803987491481731
 20
6.245171422277975
 10
-4.803987491481731
 20
6.245171422277975
 10
-4.795629579179713
 20
6.251398777350439
 10
-4.795629579179713
 20
6.251398777350439
 10
-4.789403471701572
 20
6.258192255611309
 10
-4.789403471701572
 20
6.258192255611309
 10
-4.785323638074824
 20
6.264419610683772
 10
-4.785323638074824
 20
6.264419610683772
 10
-4.781310129516551
 20
6.274609828075077
 10
-4.781310129516551
 20
6.274609828075077
 10
-4.779979664438196
 20
6.280837183147541
 10
-4.779979664438196
 20
6.280837183147541
 10
-4.779614585988947
 20
6.292159646915657
 10
-4.779614585988947
 20
6.292159646915657
 10
-4.785294908636042
 20
6.391231204886675
 10
-4.785294908636042
 20
6.391231204886675
 10
-4.792220342510173
 20
6.488038270104071
 10
-4.792220342510173
 20
6.488038270104071
 10
-4.794526639931628
 20
6.498794610683781
 10
-4.794526639931628
 20
6.498794610683781
 10
-4.797419849389026
 20
6.506154212133057
 10
-4.797419849389026
 20
6.506154212133057
 10
-4.802816573136279
 20
6.514079936770739
 10
-4.802816573136279
 20
6.514079936770739
 10
-4.810661170237491
 20
6.52200566140842
 10
-4.810661170237491
 20
6.52200566140842
 10
-4.819650295727675
 20
6.527666893292479
 10
-4.819650295727675
 20
6.527666893292479
 10
-4.838544834011024
 20
6.52879913966929
 10
-4.838544834011024
 20
6.52879913966929
 10
-4.973253625982227
 20
6.533894248364942
 10
-4.973253625982227
 20
6.533894248364942
 10
-4.992785233610096
 20
6.539555480249
 10
-4.992785233610096
 20
6.539555480249
 10
-5.001127142064991
 20
6.545216712133058
 10
-5.001127142064991
 20
6.545216712133058
 10
-5.007524448984088
 20
6.552010190393928
 10
-5.007524448984088
 20
6.552010190393928
 10
-5.012701768033924
 20
6.55993591503161
 10
-5.012701768033924
 20
6.55993591503161
 10
-5.016274828069629
 20
6.568427762857696
 10
-5.016274828069629
 20
6.568427762857696
 10
-5.018413830154361
 20
6.58031634981422
 10
-5.018413830154361
 20
6.58031634981422
 10
-5.031621444576202
 20
6.736566349814225
 10
-5.031621444576202
 20
6.736566349814225
 10
-5.045952725761353
 20
6.905837183147566
 10
-5.045952725761353
 20
6.905837183147566
 10
-5.059068638437209
 20
7.060954936770761
 10
-5.059068638437209
 20
7.060954936770761
 10
-5.059313136690079
 20
7.071711277350471
 10
-5.059313136690079
 20
7.071711277350471
 10
-5.05846627389711
 20
7.079070878799746
 10
-5.05846627389711
 20
7.079070878799746
 10
-5.055150676124511
 20
7.089261096191051
 10
-5.055150676124511
 20
7.089261096191051
 10
-5.051385838144241
 20
7.096054574451922
 10
-5.051385838144241
 20
7.096054574451922
 10
-5.043622392766891
 20
7.105112545466415
 10
-5.043622392766891
 20
7.105112545466415
 10
-5.03507171904367
 20
7.111339900538878
 10
-5.03507171904367
 20
7.111339900538878
 10
-5.022067207448902
 20
7.116435009234531
 10
-5.022067207448902
 20
7.116435009234531
 10
-4.928003597610416
 20
7.122096241118589
 10
-4.928003597610416
 20
7.122096241118589
 10
-4.92149405514521
 20
7.122662364306994
 10
-4.92149405514521
 20
7.122662364306994
 10
-4.911336320989554
 20
7.128323596191052
 10
-4.911336320989554
 20
7.128323596191052
 10
-4.904511410348838
 20
7.134550951263516
 10
-4.904511410348838
 20
7.134550951263516
 10
-4.898424792640631
 20
7.142476675901198
 10
-4.898424792640631
 20
7.142476675901198
 10
-4.894757318847601
 20
7.149836277350473
 10
-4.894757318847601
 20
7.149836277350473
 10
-4.892346400373405
 20
7.157762001988155
 10
-4.892346400373405
 20
7.157762001988155
 10
-4.891373175733512
 20
7.16795221937946
 10
-4.891373175733512
 20
7.16795221937946
 10
-4.892781395070975
 20
7.180406929524388
 10
-4.892781395070975
 20
7.180406929524388
 10
-4.916016924732153
 20
7.302689538220045
 10
-4.916016924732153
 20
7.302689538220045
 10
-4.91855414544863
 20
7.313445878799756
 10
-4.91855414544863
 20
7.313445878799756
 10
-4.921540397756523
 20
7.321937726625843
 10
-4.921540397756523
 20
7.321937726625843
 10
-4.927315700405062
 20
7.332127944017148
 10
-4.927315700405062
 20
7.332127944017148
 10
-4.932779449575367
 20
7.338921422278017
 10
-4.932779449575367
 20
7.338921422278017
 10
-4.941085982673587
 20
7.346281023727294
 10
-4.941085982673587
 20
7.346281023727294
 10
-4.951129842155398
 20
7.352508378799758
 10
-4.951129842155398
 20
7.352508378799758
 10
-4.954249549262942
 20
7.354206748364975
 10
-4.954249549262942
 20
7.354206748364975
 10
-5.045230913513123
 20
7.360434103437438
 10
-5.045230913513123
 20
7.360434103437438
 10
-5.08260612522882
 20
7.365529212133091
 10
-5.08260612522882
 20
7.365529212133091
 10
-5.084855097883163
 20
7.366095335321496
 10
-5.084855097883163
 20
7.366095335321496
 10
-5.088174003713547
 20
7.405157835321499
 10
-5.088174003713547
 20
7.405157835321499
 10
-5.239606696718148
 20
7.410819067205557
 10
-5.239606696718148
 20
7.410819067205557
 10
-5.248563665502479
 20
7.411385190393962
 10
-5.248563665502479
 20
7.411385190393962
 10
-5.26145007049363
 20
7.41704642227802
 10
-5.26145007049363
 20
7.41704642227802
 10
-5.2690512720279
 20
7.423273777350485
 10
-5.2690512720279
 20
7.423273777350485
 10
-5.274426299684456
 20
7.429501132422948
 10
-5.274426299684456
 20
7.429501132422948
 10
-5.279778319948127
 20
7.439125226625847
 10
-5.279778319948127
 20
7.439125226625847
 10
-5.282291251771858
 20
7.446484828075123
 10
-5.282291251771858
 20
7.446484828075123
 10
-5.284168917291573
 20
7.460637907785268
 10
-5.284168917291573
 20
7.460637907785268
 10
-5.29743524228852
 20
7.624813632422957
 10
-5.29743524228852
 20
7.624813632422957
 10
-5.310646492593697
 20
7.788423233872237
 10
-5.310646492593697
 20
7.788423233872237
 10
-5.324925858133247
 20
7.965053668654828
 10
-5.324925858133247
 20
7.965053668654828
 10
-5.33950968419831
 20
8.145646965756217
 10
-5.33950968419831
 20
8.145646965756217
 10
-5.341502581386745
 20
8.171309675167316
 10
-5.341502581386745
 20
8.171309675167316
 10
-5.341532010190891
 20
8.171688632422874
 10
-5.341532010190891
 20
8.171688632422874
 10
-5.341495548752583
 20
8.180245703108473
  0
LINE
  5
14F
330
70
100
AcDbEntity
  8
Vector Layer 1
 62
    18
420
        0
370
    30
100
AcDbLine
 10
-5.341495548752583
 20
8.180245703108482
 30
0.0
 11
-5.341175998529763
 21
8.182919227064022
 31
0.0
  0
LWPOLYLINE
  5
150
330
70
100
AcDbEntity
  8
Vector Layer 1
 62
    18
420
        0
370
    30
100
AcDbPolyline
 90
       42
 70
     0
 43
0.0
 10
4.603732664329314
 20
3.447956748365054
 10
5.135033328277369
 20
3.447956748365054
 10
5.135033328277369
 20
3.447956748365054
 10
5.135033328277369
 20
3.607037364307028
 10
5.135033328277369
 20
3.607037364307028
 10
5.136069555026789
 20
3.614396965756301
 10
5.136069555026789
 20
3.614396965756301
 10
5.1399956533735
 20
3.625153306336008
 10
5.1399956533735
 20
3.625153306336008
 10
5.145321924430628
 20
3.634211277350497
 10
5.145321924430628
 20
3.634211277350497
 10
5.151869017822047
 20
3.642137001988176
 10
5.151869017822047
 20
3.642137001988176
 10
5.159033853751917
 20
3.648364357060637
 10
5.159033853751917
 20
3.648364357060637
 10
5.16620357726266
 20
3.652893342567882
 10
5.16620357726266
 20
3.652893342567882
 10
5.193904180270926
 20
3.658554574451938
 10
5.193904180270926
 20
3.658554574451938
 10
5.264835912925502
 20
3.664215806335994
 10
5.264835912925502
 20
3.664215806335994
 10
5.31806172822167
 20
3.66987703822005
 10
5.31806172822167
 20
3.66987703822005
 10
5.325959582072989
 20
3.675538270104106
 10
5.325959582072989
 20
3.675538270104106
 10
5.33167781327416
 20
3.681765625176568
 10
5.33167781327416
 20
3.681765625176568
 10
5.336602766258017
 20
3.689691349814246
 10
5.336602766258017
 20
3.689691349814246
 10
5.340148110133903
 20
3.698749320828736
 10
5.340148110133903
 20
3.698749320828736
 10
5.341728646499411
 20
3.708939538220037
 10
5.341728646499411
 20
3.708939538220037
 10
5.341405887347952
 20
3.723658741118582
 10
5.341405887347952
 20
3.723658741118582
 10
5.328638155204551
 20
3.881607110683746
 10
5.328638155204551
 20
3.881607110683746
 10
5.314006764632956
 20
4.062766530973564
 10
5.314006764632956
 20
4.062766530973564
 10
5.301109332782522
 20
4.222413270104004
 10
5.301109332782522
 20
4.222413270104004
 10
5.300812969282748
 20
4.22422907673479
210
0.0
220
0.0
230
-1.0
  0
LINE
  5
151
330
70
100
AcDbEntity
  8
Vector Layer 1
 62
    18
420
        0
370
    30
100
AcDbLine
 10
-5.280502781314656
 20
3.447968894982926
 30
0.0
 11
-5.135033327744578
 21
3.447968894982926
 31
0.0
  0
LINE
  5
152
330
70
100
AcDbEntity
  8
Vector Layer 1
 62
    18
420
        0
370
    30
100
AcDbLine
 10
-5.26149191640798
 20
8.447956748364806
 30
0.0
 11
-4.76149191640798
 21
8.447956748364806
 31
0.0
  0
LINE
  5
153
330
70
100
AcDbEntity
  8
Vector Layer 1
 62
    18
420
        0
370
    30
100
AcDbLine
 10
-4.76149191640798
 20
8.447956748364806
 30
0.0
 11
-4.592064592593143
 21
8.447956748364806
 31
0.0
  0
LINE
  5
154
330
70
100
AcDbEntity
  8
Vector Layer 1
 62
    18
420
        0
370
    30
100
AcDbLine
 10
-4.603583115690187
 20
3.447956748365054
 30
0.0
 11
-4.592064592593143
 21
3.447956748365054
 31
0.0
  0
ENDSEC
  0
SECTION
  2
OBJECTS
  0
DICTIONARY
  5
C
330
0
100
AcDbDictionary
281
     1
  3
ACAD_COLOR
350
63
  3
ACAD_DETAILVIEWSTYLE
350
6A
  3
ACAD_GROUP
350
D
  3
ACAD_LAYOUT
350
62
  3
ACAD_MATERIAL
350
10
  3
ACAD_MLEADERSTYLE
350
66
  3
ACAD_MLINESTYLE
350
5F
  3
ACAD_PLOTSETTINGS
350
61
  3
ACAD_PLOTSTYLENAME
350
E
  3
ACAD_SCALELIST
350
42
  3
ACAD_SECTIONVIEWSTYLE
350
68
  3
ACAD_TABLESTYLE
350
64
  3
ACAD_VISUALSTYLE
350
29
  3
ACDB_RECOMPOSE_DATA
350
15E
  3
AcDbVariableDictionary
350
155
  0
DICTIONARY
  5
63
102
{ACAD_REACTORS
330
C
102
}
330
C
100
AcDbDictionary
281
     1
  0
DICTIONARY
  5
6A
102
{ACAD_REACTORS
330
C
102
}
330
C
100
AcDbDictionary
281
     1
  3
Imperial24
350
6B
  0
DICTIONARY
  5
D
102
{ACAD_REACTORS
330
C
102
}
330
C
100
AcDbDictionary
281
     1
  0
DICTIONARY
  5
62
102
{ACAD_REACTORS
330
C
102
}
330
C
100
AcDbDictionary
281
     1
  3
Layout1
350
6F
  3
Layout2
350
77
  3
Model
350
73
  0
DICTIONARY
  5
10
102
{ACAD_REACTORS
330
C
102
}
330
C
100
AcDbDictionary
281
     1
  3
ByBlock
350
19
  3
ByLayer
350
11
  3
Global
350
21
  0
DICTIONARY
  5
66
102
{ACAD_REACTORS
330
C
102
}
330
C
100
AcDbDictionary
281
     1
  3
Standard
350
67
  0
DICTIONARY
  5
5F
102
{ACAD_REACTORS
330
C
102
}
330
C
100
AcDbDictionary
281
     1
  3
Standard
350
60
  0
DICTIONARY
  5
61
102
{ACAD_REACTORS
330
C
102
}
330
C
100
AcDbDictionary
281
     1
  0
ACDBDICTIONARYWDFLT
  5
E
102
{ACAD_REACTORS
330
C
102
}
330
C
100
AcDbDictionary
281
     1
  3
Normal
350
F
100
AcDbDictionaryWithDefault
340
F
  0
DICTIONARY
  5
42
102
{ACAD_REACTORS
330
C
102
}
330
C
100
AcDbDictionary
281
     1
  3
A0
350
43
  3
A1
350
44
  3
A2
350
45
  3
A3
350
46
  3
A4
350
47
  3
A5
350
48
  3
A6
350
49
  3
A7
350
4A
  3
A8
350
4B
  3
A9
350
4C
  3
B0
350
4D
  3
B1
350
4E
  3
B2
350
4F
  3
B3
350
50
  3
B4
350
51
  3
B5
350
52
  3
B6
350
53
  0
DICTIONARY
  5
68
102
{ACAD_REACTORS
330
C
102
}
330
C
100
AcDbDictionary
281
     1
  3
Imperial24
350
69
  0
DICTIONARY
  5
64
102
{ACAD_REACTORS
330
C
102
}
330
C
100
AcDbDictionary
281
     1
  3
Standard
350
65
  0
DICTIONARY
  5
29
102
{ACAD_REACTORS
330
C
102
}
330
C
100
AcDbDictionary
281
     1
  3
2dWireframe
350
2F
  3
Basic
350
2E
  3
Brighten
350
35
  3
ColorChange
350
39
  3
Conceptual
350
32
  3
Dim
350
34
  3
EdgeColorOff
350
41
  3
Facepattern
350
38
  3
Flat
350
2A
  3
FlatWithEdges
350
2B
  3
Gouraud
350
2C
  3
GouraudWithEdges
350
2D
  3
Hidden
350
31
  3
JitterOff
350
3F
  3
Linepattern
350
37
  3
OverhangOff
350
40
  3
Realistic
350
33
  3
Shaded
350
3E
  3
Shaded with edges
350
3D
  3
Shades of Gray
350
3A
  3
Sketchy
350
3B
  3
Thicken
350
36
  3
Wireframe
350
30
  3
X-Ray
350
3C
  0
XRECORD
  5
15E
102
{ACAD_REACTORS
330
C
102
}
330
C
100
AcDbXrecord
280
     1
 90
        1
330
65
  0
DICTIONARY
  5
155
102
{ACAD_REACTORS
330
C
102
}
330
C
100
AcDbDictionary
281
     1
  3
CANNOSCALE
350
15A
  3
CMLEADERSTYLE
350
157
  3
CTABLESTYLE
350
156
  3
CVIEWDETAILSTYLE
350
158
  3
CVIEWSECTIONSTYLE
350
159
  3
XCLIPFRAME
350
15B
  0
ACDBDETAILVIEWSTYLE
  5
6B
102
{ACAD_XDICTIONARY
360
194
102
}
102
{ACAD_REACTORS
330
6A
102
}
330
6A
100
AcDbModelDocViewStyle
 70
     0
  3
Imperial24
290
     0
100
AcDbDetailViewStyle
 70
     0
 71
     0
 90
        3
 71
     1
340
55
 62
   256
 40
0.24
340
0
 62
   256
 40
0.24
300

 40
0.36
280
     3
 71
     2
340
5D
 90
       25
 62
   256
 71
     3
340
55
 62
   256
 40
0.24
 90
        1
 40
0.75
 90
        1
300
%<\AcVar ViewType \f "%tc1">% %<\AcVar ViewDetailId>%\PSCALE %<\AcVar ViewScale \f "%sn">%
 71
     4
340
5D
 90
       25
 62
   256
340
5D
 90
       25
 62
   256
280
     0
  0
LAYOUT
  5
6F
102
{ACAD_REACTORS
330
62
102
}
330
62
100
AcDbPlotSettings
  1

  2

  4

  6

 40
0.0
 41
0.0
 42
0.0
 43
0.0
 44
0.0
 45
0.0
 46
0.0
 47
0.0
 48
0.0
 49
0.0
140
0.0
141
0.0
142
1.0
143
1.0
 70
   688
 72
     0
 73
     0
 74
     5
  7

 75
    16
147
1.0
 76
     0
 77
     2
 78
   300
148
0.0
149
0.0
100
AcDbLayout
  1
Layout1
 70
     1
 71
     1
 10
0.0
 20
0.0
 11
12.0
 21
9.0
 12
0.0
 22
0.0
 32
0.0
 14
0.0
 24
0.0
 34
0.0
 15
0.0
 25
0.0
 35
0.0
146
0.0
 13
0.0
 23
0.0
 33
0.0
 16
1.0
 26
0.0
 36
0.0
 17
0.0
 27
1.0
 37
0.0
 76
     0
330
6C
  0
LAYOUT
  5
77
102
{ACAD_REACTORS
330
62
102
}
330
62
100
AcDbPlotSettings
  1

  2

  4

  6

 40
0.0
 41
0.0
 42
0.0
 43
0.0
 44
0.0
 45
0.0
 46
0.0
 47
0.0
 48
0.0
 49
0.0
140
0.0
141
0.0
142
1.0
143
1.0
 70
   688
 72
     0
 73
     0
 74
     5
  7

 75
    16
147
1.0
 76
     0
 77
     2
 78
   300
148
0.0
149
0.0
100
AcDbLayout
  1
Layout2
 70
     1
 71
     2
 10
0.0
 20
0.0
 11
12.0
 21
9.0
 12
0.0
 22
0.0
 32
0.0
 14
0.0
 24
0.0
 34
0.0
 15
0.0
 25
0.0
 35
0.0
146
0.0
 13
0.0
 23
0.0
 33
0.0
 16
1.0
 26
0.0
 36
0.0
 17
0.0
 27
1.0
 37
0.0
 76
     0
330
74
  0
LAYOUT
  5
73
102
{ACAD_REACTORS
330
62
102
}
330
62
100
AcDbPlotSettings
  1

  2

  4

  6

 40
0.0
 41
0.0
 42
0.0
 43
0.0
 44
0.0
 45
0.0
 46
0.0
 47
0.0
 48
0.0
 49
0.0
140
0.0
141
0.0
142
1.0
143
1.0
 70
  1712
 72
     0
 73
     0
 74
     0
  7

 75
     0
147
1.0
 76
     0
 77
     2
 78
   300
148
0.0
149
0.0
100
AcDbLayout
  1
Model
 70
     1
 71
     0
 10
0.0
 20
0.0
 11
12.0
 21
9.0
 12
0.0
 22
0.0
 32
0.0
 14
0.0
 24
0.0
 34
0.0
 15
0.0
 25
0.0
 35
0.0
146
0.0
 13
0.0
 23
0.0
 33
0.0
 16
1.0
 26
0.0
 36
0.0
 17
0.0
 27
1.0
 37
0.0
 76
     0
330
70
  0
MATERIAL
  5
19
102
{ACAD_XDICTIONARY
360
1A
102
}
102
{ACAD_REACTORS
330
10
102
}
330
10
100
AcDbMaterial
  1
ByBlock
 72
     0
 43
0.0208333333333333
 43
0.0
 43
0.0
 43
0.0
 43
0.0
 43
0.0208333333333333
 43
0.0
 43
0.0
 43
0.0
 43
0.0
 43
1.0
 43
0.0
 43
0.0
 43
0.0
 43
0.0
 43
1.0
 77
     0
 47
0.0208333333333333
 47
0.0
 47
0.0
 47
0.0
 47
0.0
 47
0.0208333333333333
 47
0.0
 47
0.0
 47
0.0
 47
0.0
 47
1.0
 47
0.0
 47
0.0
 47
0.0
 47
0.0
 47
1.0
171
     0
 49
0.0208333333333333
 49
0.0
 49
0.0
 49
0.0
 49
0.0
 49
0.0208333333333333
 49
0.0
 49
0.0
 49
0.0
 49
0.0
 49
1.0
 49
0.0
 49
0.0
 49
0.0
 49
0.0
 49
1.0
175
     0
142
0.0208333333333333
142
0.0
142
0.0
142
0.0
142
0.0
142
0.0208333333333333
142
0.0
142
0.0
142
0.0
142
0.0
142
1.0
142
0.0
142
0.0
142
0.0
142
0.0
142
1.0
179
     0
144
0.0208333333333333
144
0.0
144
0.0
144
0.0
144
0.0
144
0.0208333333333333
144
0.0
144
0.0
144
0.0
144
0.0
144
1.0
144
0.0
144
0.0
144
0.0
144
0.0
144
1.0
147
0.0208333333333333
147
0.0
147
0.0
147
0.0
147
0.0
147
0.0208333333333333
147
0.0
147
0.0
147
0.0
147
0.0
147
1.0
147
0.0
147
0.0
147
0.0
147
0.0
147
1.0
  0
MATERIAL
  5
11
102
{ACAD_XDICTIONARY
360
12
102
}
102
{ACAD_REACTORS
330
10
102
}
330
10
100
AcDbMaterial
  1
ByLayer
 72
     0
 43
0.0208333333333333
 43
0.0
 43
0.0
 43
0.0
 43
0.0
 43
0.0208333333333333
 43
0.0
 43
0.0
 43
0.0
 43
0.0
 43
1.0
 43
0.0
 43
0.0
 43
0.0
 43
0.0
 43
1.0
 77
     0
 47
0.0208333333333333
 47
0.0
 47
0.0
 47
0.0
 47
0.0
 47
0.0208333333333333
 47
0.0
 47
0.0
 47
0.0
 47
0.0
 47
1.0
 47
0.0
 47
0.0
 47
0.0
 47
0.0
 47
1.0
171
     0
 49
0.0208333333333333
 49
0.0
 49
0.0
 49
0.0
 49
0.0
 49
0.0208333333333333
 49
0.0
 49
0.0
 49
0.0
 49
0.0
 49
1.0
 49
0.0
 49
0.0
 49
0.0
 49
0.0
 49
1.0
175
     0
142
0.0208333333333333
142
0.0
142
0.0
142
0.0
142
0.0
142
0.0208333333333333
142
0.0
142
0.0
142
0.0
142
0.0
142
1.0
142
0.0
142
0.0
142
0.0
142
0.0
142
1.0
179
     0
144
0.0208333333333333
144
0.0
144
0.0
144
0.0
144
0.0
144
0.0208333333333333
144
0.0
144
0.0
144
0.0
144
0.0
144
1.0
144
0.0
144
0.0
144
0.0
144
0.0
144
1.0
147
0.0208333333333333
147
0.0
147
0.0
147
0.0
147
0.0
147
0.0208333333333333
147
0.0
147
0.0
147
0.0
147
0.0
147
1.0
147
0.0
147
0.0
147
0.0
147
0.0
147
1.0
  0
MATERIAL
  5
21
102
{ACAD_XDICTIONARY
360
22
102
}
102
{ACAD_REACTORS
330
10
102
}
330
10
100
AcDbMaterial
  1
Global
 72
     0
 43
0.0208333333333333
 43
0.0
 43
0.0
 43
0.0
 43
0.0
 43
0.0208333333333333
 43
0.0
 43
0.0
 43
0.0
 43
0.0
 43
1.0
 43
0.0
 43
0.0
 43
0.0
 43
0.0
 43
1.0
 77
     0
 47
0.0208333333333333
 47
0.0
 47
0.0
 47
0.0
 47
0.0
 47
0.0208333333333333
 47
0.0
 47
0.0
 47
0.0
 47
0.0
 47
1.0
 47
0.0
 47
0.0
 47
0.0
 47
0.0
 47
1.0
171
     0
 49
0.0208333333333333
 49
0.0
 49
0.0
 49
0.0
 49
0.0
 49
0.0208333333333333
 49
0.0
 49
0.0
 49
0.0
 49
0.0
 49
1.0
 49
0.0
 49
0.0
 49
0.0
 49
0.0
 49
1.0
175
     0
142
0.0208333333333333
142
0.0
142
0.0
142
0.0
142
0.0
142
0.0208333333333333
142
0.0
142
0.0
142
0.0
142
0.0
142
1.0
142
0.0
142
0.0
142
0.0
142
0.0
142
1.0
179
     0
144
0.0208333333333333
144
0.0
144
0.0
144
0.0
144
0.0
144
0.0208333333333333
144
0.0
144
0.0
144
0.0
144
0.0
144
1.0
144
0.0
144
0.0
144
0.0
144
0.0
144
1.0
147
0.0208333333333333
147
0.0
147
0.0
147
0.0
147
0.0
147
0.0208333333333333
147
0.0
147
0.0
147
0.0
147
0.0
147
1.0
147
0.0
147
0.0
147
0.0
147
0.0
147
1.0
  0
MLEADERSTYLE
  5
67
102
{ACAD_XDICTIONARY
360
190
102
}
102
{ACAD_REACTORS
330
66
102
}
330
66
100
AcDbMLeaderStyle
170
     2
171
     1
172
     0
 90
        2
 40
0.0
 41
0.0
173
     1
 91
-1056964608
340
5B
 92
       -2
290
     1
 42
0.09
291
     1
 43
0.36
  3
Standard
 44
0.18
300

342
55
174
     1
178
     6
175
     1
176
     0
 93
-1056964608
 45
0.18
292
     0
297
     0
 46
0.18
 94
-1056964608
 47
1.0
 49
1.0
140
1.0
293
     1
141
0.0
294
     1
177
     0
142
1.0
295
     0
296
     0
143
0.125
1001
ACAD_MLEADERVER
1070
     2
  0
MLINESTYLE
  5
60
102
{ACAD_REACTORS
330
5F
102
}
330
5F
100
AcDbMlineStyle
  2
STANDARD
 70
     0
  3

 62
   256
 51
90.0
 52
90.0
 71
     2
 49
0.5
 62
   256
  6
BYLAYER
 49
-0.5
 62
   256
  6
BYLAYER
  0
ACDBPLACEHOLDER
  5
F
102
{ACAD_REACTORS
330
E
102
}
330
E
  0
SCALE
  5
43
102
{ACAD_REACTORS
330
42
102
}
330
42
100
AcDbScale
 70
     0
300
1:1
140
1.0
141
1.0
290
     1
  0
SCALE
  5
44
102
{ACAD_REACTORS
330
42
102
}
330
42
100
AcDbScale
 70
     0
300
1/128" = 1'-0"
140
0.0078125
141
12.0
290
     0
  0
SCALE
  5
45
102
{ACAD_REACTORS
330
42
102
}
330
42
100
AcDbScale
 70
     0
300
1/64" = 1'-0"
140
0.015625
141
12.0
290
     0
  0
SCALE
  5
46
102
{ACAD_REACTORS
330
42
102
}
330
42
100
AcDbScale
 70
     0
300
1/32" = 1'-0"
140
0.03125
141
12.0
290
     0
  0
SCALE
  5
47
102
{ACAD_REACTORS
330
42
102
}
330
42
100
AcDbScale
 70
     0
300
1/16" = 1'-0"
140
0.0625
141
12.0
290
     0
  0
SCALE
  5
48
102
{ACAD_REACTORS
330
42
102
}
330
42
100
AcDbScale
 70
     0
300
3/32" = 1'-0"
140
0.09375
141
12.0
290
     0
  0
SCALE
  5
49
102
{ACAD_REACTORS
330
42
102
}
330
42
100
AcDbScale
 70
     0
300
1/8" = 1'-0"
140
0.125
141
12.0
290
     0
  0
SCALE
  5
4A
102
{ACAD_REACTORS
330
42
102
}
330
42
100
AcDbScale
 70
     0
300
3/16" = 1'-0"
140
0.1875
141
12.0
290
     0
  0
SCALE
  5
4B
102
{ACAD_REACTORS
330
42
102
}
330
42
100
AcDbScale
 70
     0
300
1/4" = 1'-0"
140
0.25
141
12.0
290
     0
  0
SCALE
  5
4C
102
{ACAD_REACTORS
330
42
102
}
330
42
100
AcDbScale
 70
     0
300
3/8" = 1'-0"
140
0.375
141
12.0
290
     0
  0
SCALE
  5
4D
102
{ACAD_REACTORS
330
42
102
}
330
42
100
AcDbScale
 70
     0
300
1/2" = 1'-0"
140
0.5
141
12.0
290
     0
  0
SCALE
  5
4E
102
{ACAD_REACTORS
330
42
102
}
330
42
100
AcDbScale
 70
     0
300
3/4" = 1'-0"
140
0.75
141
12.0
290
     0
  0
SCALE
  5
4F
102
{ACAD_REACTORS
330
42
102
}
330
42
100
AcDbScale
 70
     0
300
1" = 1'-0"
140
1.0
141
12.0
290
     0
  0
SCALE
  5
50
102
{ACAD_REACTORS
330
42
102
}
330
42
100
AcDbScale
 70
     0
300
1-1/2" = 1'-0"
140
1.5
141
12.0
290
     0
  0
SCALE
  5
51
102
{ACAD_REACTORS
330
42
102
}
330
42
100
AcDbScale
 70
     0
300
3" = 1'-0"
140
3.0
141
12.0
290
     0
  0
SCALE
  5
52
102
{ACAD_REACTORS
330
42
102
}
330
42
100
AcDbScale
 70
     0
300
6" = 1'-0"
140
6.0
141
12.0
290
     0
  0
SCALE
  5
53
102
{ACAD_REACTORS
330
42
102
}
330
42
100
AcDbScale
 70
     0
300
1'-0" = 1'-0"
140
12.0
141
12.0
290
     0
  0
ACDBSECTIONVIEWSTYLE
  5
69
102
{ACAD_XDICTIONARY
360
192
102
}
102
{ACAD_REACTORS
330
68
102
}
330
68
100
AcDbModelDocViewStyle
 70
     0
  3
Imperial24
290
     0
100
AcDbSectionViewStyle
 70
     0
 71
     0
 90
       78
 71
     1
340
55
 62
   256
 40
0.24
340
0
340
0
 62
   256
 40
0.24
300
I, O, Q, S, X, Z
 40
0.48
 90
        3
 40
0.18
 90
        1
 71
     2
340
5D
 90
       25
 62
   256
340
5D
 90
       50
 62
   256
 40
0.24
 40
0.0
 40
0.24
 71
     3
340
55
 62
   256
 40
0.24
 90
        1
 40
0.75
 90
        1
300
%<\AcVar ViewType \f "%tc1">% %<\AcVar ViewSectionStartId>%-%<\AcVar ViewSectionEndId>%\PSCALE %<\AcVar ViewScale \f "%sn">%
 71
     4
 62
   256
 62
   257
300
ANSI31
 40
1.0
 90
        0
290
     0
290
     0
 90
        6
 40
0.0
 40
1.570796326794896
 40
0.2617993877991494
 40
1.308996938995747
 40
-0.2617993877991494
 40
1.832595714594046
  0
TABLESTYLE
  5
65
102
{ACAD_XDICTIONARY
360
15C
102
}
102
{ACAD_REACTORS
330
64
102
}
330
64
100
AcDbTableStyle
  3
Standard
 70
     0
 71
     0
 40
0.06
 41
0.06
280
     0
281
     0
  7
Standard
140
0.18
170
     2
 62
     0
 63
     7
283
     0
 90
      512
 91
        0
  1

274
    -2
284
     1
 64
     0
275
    -2
285
     1
 65
     0
276
    -2
286
     1
 66
     0
277
    -2
287
     1
 67
     0
278
    -2
288
     1
 68
     0
279
    -2
289
     1
 69
     0
  7
Standard
140
0.25
170
     5
 62
     0
 63
     7
283
     0
 90
      512
 91
        0
  1

274
    -2
284
     1
 64
     0
275
    -2
285
     1
 65
     0
276
    -2
286
     1
 66
     0
277
    -2
287
     1
 67
     0
278
    -2
288
     1
 68
     0
279
    -2
289
     1
 69
     0
  7
Standard
140
0.18
170
     5
 62
     0
 63
     7
283
     0
 90
      512
 91
        0
  1

274
    -2
284
     1
 64
     0
275
    -2
285
     1
 65
     0
276
    -2
286
     1
 66
     0
277
    -2
287
     1
 67
     0
278
    -2
288
     1
 68
     0
279
    -2
289
     1
 69
     0
  0
VISUALSTYLE
  5
2F
102
{ACAD_XDICTIONARY
360
169
102
}
102
{ACAD_REACTORS
330
29
102
}
330
29
100
AcDbVisualStyle
  2
2dWireframe
 70
     4
 71
     0
 72
     2
 73
     0
 90
        0
 40
-0.6
 41
-30.0
 62
     5
 63
     7
421
 16777215
 74
     1
 91
        4
 64
     7
 65
   257
 75
     1
175
     1
 42
1.0
 92
        0
 66
   257
 43
1.0
 76
     1
 77
     6
 78
     2
 67
     7
 79
     5
170
     0
171
     0
290
     0
174
     0
 93
        1
 44
0.0
173
     0
291
     0
 45
0.0
1001
ACAD
1000
AcDbSavedByObjectVersion
1070
     0
  0
VISUALSTYLE
  5
2E
102
{ACAD_XDICTIONARY
360
167
102
}
102
{ACAD_REACTORS
330
29
102
}
330
29
100
AcDbVisualStyle
  2
Basic
 70
     7
 71
     1
 72
     0
 73
     1
 90
        0
 40
-0.6
 41
-30.0
 62
     5
 63
     7
421
 16777215
 74
     0
 91
        4
 64
     7
 65
   257
 75
     1
175
     1
 42
1.0
 92
        8
 66
     7
 43
1.0
 76
     1
 77
     6
 78
     2
 67
     7
 79
     5
170
     0
171
     0
290
     0
174
     0
 93
        1
 44
0.0
173
     0
291
     1
 45
0.0
1001
ACAD
1000
AcDbSavedByObjectVersion
1070
     0
  0
VISUALSTYLE
  5
35
102
{ACAD_XDICTIONARY
360
175
102
}
102
{ACAD_REACTORS
330
29
102
}
330
29
100
AcDbVisualStyle
  2
Brighten
 70
    12
 71
     2
 72
     2
 73
     0
 90
        0
 40
-0.6
 41
-30.0
 62
     5
 63
     7
421
 16777215
 74
     1
 91
        4
 64
     7
 65
   257
 75
     1
175
     1
 42
1.0
 92
        8
 66
     7
 43
1.0
 76
     1
 77
     6
 78
     2
 67
     7
 79
     5
170
     0
171
     0
290
     0
174
     0
 93
        1
 44
50.0
173
     0
291
     1
 45
0.0
1001
ACAD
1000
AcDbSavedByObjectVersion
1070
     0
  0
VISUALSTYLE
  5
39
102
{ACAD_XDICTIONARY
360
17D
102
}
102
{ACAD_REACTORS
330
29
102
}
330
29
100
AcDbVisualStyle
  2
ColorChange
 70
    16
 71
     2
 72
     2
 73
     3
 90
        0
 40
-0.6
 41
-30.0
 62
     5
 63
     8
421
  8421504
 74
     1
 91
        4
 64
     7
 65
   257
 75
     1
175
     1
 42
1.0
 92
        8
 66
     8
424
  8421504
 43
1.0
 76
     1
 77
     6
 78
     2
 67
     7
 79
     5
170
     0
171
     0
290
     0
174
     0
 93
        1
 44
0.0
173
     0
291
     1
 45
0.0
1001
ACAD
1000
AcDbSavedByObjectVersion
1070
     0
  0
VISUALSTYLE
  5
32
102
{ACAD_XDICTIONARY
360
16F
102
}
102
{ACAD_REACTORS
330
29
102
}
330
29
100
AcDbVisualStyle
  2
Conceptual
 70
     9
 71
     3
 72
     2
 73
     0
 90
        0
 40
-0.6
 41
-30.0
 62
     5
 63
     7
421
 16777215
 74
     2
 91
        2
 64
     7
 65
   257
 75
     1
175
     1
 42
179.0
 92
        8
 66
     7
 43
1.0
 76
     1
 77
     6
 78
     2
 67
     7
 79
     3
170
     0
171
     0
290
     0
174
     0
 93
        1
 44
0.0
173
     0
291
     0
 45
0.0
1001
ACAD
1000
AcDbSavedByObjectVersion
1070
     0
  0
VISUALSTYLE
  5
34
102
{ACAD_XDICTIONARY
360
173
102
}
102
{ACAD_REACTORS
330
29
102
}
330
29
100
AcDbVisualStyle
  2
Dim
 70
    11
 71
     2
 72
     2
 73
     0
 90
        0
 40
-0.6
 41
-30.0
 62
     5
 63
     7
421
 16777215
 74
     1
 91
        4
 64
     7
 65
   257
 75
     1
175
     1
 42
1.0
 92
        8
 66
     7
 43
1.0
 76
     1
 77
     6
 78
     2
 67
     7
 79
     5
170
     0
171
     0
290
     0
174
     0
 93
        1
 44
-50.0
173
     0
291
     1
 45
0.0
1001
ACAD
1000
AcDbSavedByObjectVersion
1070
     0
  0
VISUALSTYLE
  5
41
102
{ACAD_XDICTIONARY
360
18D
102
}
102
{ACAD_REACTORS
330
29
102
}
330
29
100
AcDbVisualStyle
  2
EdgeColorOff
 70
    22
 71
     2
 72
     2
 73
     0
 90
        0
 40
-0.6
 41
-30.0
 62
     5
 63
     7
421
 16777215
 74
     1
 91
        4
 64
     7
 65
   257
 75
     1
175
     1
 42
1.0
 92
        8
 66
     7
 43
1.0
 76
     1
 77
     6
 78
     2
 67
     7
 79
     5
170
     0
171
     0
290
     0
174
     0
 93
        1
 44
0.0
173
     0
291
     1
 45
0.0
1001
ACAD
1000
AcDbSavedByObjectVersion
1070
     0
  0
VISUALSTYLE
  5
38
102
{ACAD_XDICTIONARY
360
17B
102
}
102
{ACAD_REACTORS
330
29
102
}
330
29
100
AcDbVisualStyle
  2
Facepattern
 70
    15
 71
     2
 72
     2
 73
     0
 90
        0
 40
-0.6
 41
-30.0
 62
     5
 63
     7
421
 16777215
 74
     1
 91
        4
 64
     7
 65
   257
 75
     1
175
     1
 42
1.0
 92
        8
 66
     7
 43
1.0
 76
     1
 77
     6
 78
     2
 67
     7
 79
     5
170
     0
171
     0
290
     0
174
     0
 93
        1
 44
0.0
173
     0
291
     1
 45
0.0
1001
ACAD
1000
AcDbSavedByObjectVersion
1070
     0
  0
VISUALSTYLE
  5
2A
102
{ACAD_XDICTIONARY
360
15F
102
}
102
{ACAD_REACTORS
330
29
102
}
330
29
100
AcDbVisualStyle
  2
Flat
 70
     0
 71
     2
 72
     1
 73
     1
 90
        2
 40
-0.6
 41
30.0
 62
     5
 63
     7
421
 16777215
 74
     0
 91
        0
 64
     7
 65
   257
 75
     1
175
     1
 42
1.0
 92
        8
 66
     7
 43
1.0
 76
     1
 77
     6
 78
     2
 67
     7
 79
     5
170
     0
171
     0
290
     0
174
     0
 93
       13
 44
0.0
173
     0
291
     1
 45
0.0
1001
ACAD
1000
AcDbSavedByObjectVersion
1070
     0
  0
VISUALSTYLE
  5
2B
102
{ACAD_XDICTIONARY
360
161
102
}
102
{ACAD_REACTORS
330
29
102
}
330
29
100
AcDbVisualStyle
  2
FlatWithEdges
 70
     1
 71
     2
 72
     1
 73
     1
 90
        2
 40
-0.6
 41
30.0
 62
     5
 63
     7
421
 16777215
 74
     1
 91
        0
 64
     7
 65
   257
 75
     1
175
     1
 42
1.0
 92
        0
 66
   257
 43
1.0
 76
     1
 77
     6
 78
     2
 67
     7
 79
     5
170
     0
171
     0
290
     0
174
     0
 93
       13
 44
0.0
173
     0
291
     1
 45
0.0
1001
ACAD
1000
AcDbSavedByObjectVersion
1070
     0
  0
VISUALSTYLE
  5
2C
102
{ACAD_XDICTIONARY
360
163
102
}
102
{ACAD_REACTORS
330
29
102
}
330
29
100
AcDbVisualStyle
  2
Gouraud
 70
     2
 71
     2
 72
     2
 73
     1
 90
        2
 40
-0.6
 41
30.0
 62
     5
 63
     7
421
 16777215
 74
     0
 91
        0
 64
     7
 65
   257
 75
     1
175
     1
 42
1.0
 92
        0
 66
     7
 43
1.0
 76
     1
 77
     6
 78
     2
 67
     7
 79
     5
170
     0
171
     0
290
     0
174
     0
 93
       13
 44
0.0
173
     0
291
     1
 45
0.0
1001
ACAD
1000
AcDbSavedByObjectVersion
1070
     0
  0
VISUALSTYLE
  5
2D
102
{ACAD_XDICTIONARY
360
165
102
}
102
{ACAD_REACTORS
330
29
102
}
330
29
100
AcDbVisualStyle
  2
GouraudWithEdges
 70
     3
 71
     2
 72
     2
 73
     1
 90
        2
 40
-0.6
 41
30.0
 62
     5
 63
     7
421
 16777215
 74
     1
 91
        0
 64
     7
 65
   257
 75
     1
175
     1
 42
1.0
 92
        0
 66
   257
 43
1.0
 76
     1
 77
     6
 78
     2
 67
     7
 79
     5
170
     0
171
     0
290
     0
174
     0
 93
       13
 44
0.0
173
     0
291
     1
 45
0.0
1001
ACAD
1000
AcDbSavedByObjectVersion
1070
     0
  0
VISUALSTYLE
  5
31
102
{ACAD_XDICTIONARY
360
16D
102
}
102
{ACAD_REACTORS
330
29
102
}
330
29
100
AcDbVisualStyle
  2
Hidden
 70
     6
 71
     1
 72
     2
 73
     2
 90
        0
 40
-0.6
 41
-30.0
 62
     5
 63
     7
421
 16777215
 74
     2
 91
        2
 64
     7
 65
   257
 75
     2
175
     1
 42
40.0
 92
        0
 66
   257
 43
1.0
 76
     1
 77
     6
 78
     2
 67
     7
 79
     3
170
     0
171
     0
290
     0
174
     0
 93
        1
 44
0.0
173
     0
291
     0
 45
0.0
1001
ACAD
1000
AcDbSavedByObjectVersion
1070
     0
  0
VISUALSTYLE
  5
3F
102
{ACAD_XDICTIONARY
360
189
102
}
102
{ACAD_REACTORS
330
29
102
}
330
29
100
AcDbVisualStyle
  2
JitterOff
 70
    20
 71
     2
 72
     2
 73
     0
 90
        0
 40
-0.6
 41
-30.0
 62
     5
 63
     7
421
 16777215
 74
     1
 91
        4
 64
     7
 65
   257
 75
     1
175
     1
 42
1.0
 92
       10
 66
     7
 43
1.0
 76
     1
 77
     6
 78
     2
 67
     7
 79
     5
170
     0
171
     0
290
     0
174
     0
 93
        1
 44
0.0
173
     0
291
     1
 45
0.0
1001
ACAD
1000
AcDbSavedByObjectVersion
1070
     0
  0
VISUALSTYLE
  5
37
102
{ACAD_XDICTIONARY
360
179
102
}
102
{ACAD_REACTORS
330
29
102
}
330
29
100
AcDbVisualStyle
  2
Linepattern
 70
    14
 71
     2
 72
     2
 73
     0
 90
        0
 40
-0.6
 41
-30.0
 62
     5
 63
     7
421
 16777215
 74
     1
 91
        4
 64
     7
 65
   257
 75
     7
175
     7
 42
1.0
 92
        8
 66
     7
 43
1.0
 76
     1
 77
     6
 78
     2
 67
     7
 79
     5
170
     0
171
     0
290
     0
174
     0
 93
        1
 44
0.0
173
     0
291
     1
 45
0.0
1001
ACAD
1000
AcDbSavedByObjectVersion
1070
     0
  0
VISUALSTYLE
  5
40
102
{ACAD_XDICTIONARY
360
18B
102
}
102
{ACAD_REACTORS
330
29
102
}
330
29
100
AcDbVisualStyle
  2
OverhangOff
 70
    21
 71
     2
 72
     2
 73
     0
 90
        0
 40
-0.6
 41
-30.0
 62
     5
 63
     7
421
 16777215
 74
     1
 91
        4
 64
     7
 65
   257
 75
     1
175
     1
 42
1.0
 92
        9
 66
     7
 43
1.0
 76
     1
 77
     6
 78
     2
 67
     7
 79
     5
170
     0
171
     0
290
     0
174
     0
 93
        1
 44
0.0
173
     0
291
     1
 45
0.0
1001
ACAD
1000
AcDbSavedByObjectVersion
1070
     0
  0
VISUALSTYLE
  5
33
102
{ACAD_XDICTIONARY
360
171
102
}
102
{ACAD_REACTORS
330
29
102
}
330
29
100
AcDbVisualStyle
  2
Realistic
 70
     8
 71
     2
 72
     3
 73
     0
 90
        2
 40
-0.6
 41
30.0
 62
     5
 63
     7
421
 16777215
 74
     0
 91
        0
 64
     7
 65
   257
 75
     1
175
     1
 42
1.0
 92
        8
 66
   257
 43
1.0
 76
     1
 77
     6
 78
     2
 67
     7
 79
     3
170
     0
171
     0
290
     0
174
     0
 93
       13
 44
0.0
173
     0
291
     0
 45
0.0
1001
ACAD
1000
AcDbSavedByObjectVersion
1070
     0
  0
VISUALSTYLE
  5
3E
102
{ACAD_XDICTIONARY
360
187
102
}
102
{ACAD_REACTORS
330
29
102
}
330
29
100
AcDbVisualStyle
  2
Shaded
 70
    27
 71
     2
 72
     2
 73
     1
 90
        2
 40
-0.6
 41
30.0
 62
     5
 63
     7
421
 16777215
 74
     0
 91
        4
 64
     7
 65
   257
 75
     1
175
     1
 42
1.0
 92
        8
 66
   257
 43
1.0
 76
     1
 77
     6
 78
     2
 67
     8
425
  7895160
 79
     3
170
     0
171
     0
290
     0
174
     0
 93
        5
 44
0.0
173
     0
291
     0
 45
0.0
1001
ACAD
1000
AcDbSavedByObjectVersion
1070
     0
  0
VISUALSTYLE
  5
3D
102
{ACAD_XDICTIONARY
360
185
102
}
102
{ACAD_REACTORS
330
29
102
}
330
29
100
AcDbVisualStyle
  2
Shaded with edges
 70
    26
 71
     2
 72
     2
 73
     1
 90
        2
 40
-0.6
 41
30.0
 62
     5
 63
     7
421
 16777215
 74
     1
 91
        2
 64
     7
 65
   257
 75
     2
175
     1
 42
1.0
 92
        8
 66
   257
 43
1.0
 76
     1
 77
     6
 78
     2
 67
     7
 79
     3
170
     0
171
     0
290
     0
174
     0
 93
        5
 44
0.0
173
     0
291
     0
 45
0.0
1001
ACAD
1000
AcDbSavedByObjectVersion
1070
     0
  0
VISUALSTYLE
  5
3A
102
{ACAD_XDICTIONARY
360
17F
102
}
102
{ACAD_REACTORS
330
29
102
}
330
29
100
AcDbVisualStyle
  2
Shades of Gray
 70
    23
 71
     2
 72
     2
 73
     3
 90
        0
 40
-0.6
 41
-30.0
 62
     5
 63
     7
421
 16777215
 74
     2
 91
        2
 64
     7
 65
     7
 75
     1
175
     1
 42
40.0
 92
        8
 66
     7
 43
1.0
 76
     1
 77
     6
 78
     2
 67
     7
 79
     3
170
     0
171
     0
290
     0
174
     0
 93
        1
 44
0.0
173
     0
291
     0
 45
0.0
1001
ACAD
1000
AcDbSavedByObjectVersion
1070
     0
  0
VISUALSTYLE
  5
3B
102
{ACAD_XDICTIONARY
360
181
102
}
102
{ACAD_REACTORS
330
29
102
}
330
29
100
AcDbVisualStyle
  2
Sketchy
 70
    24
 71
     1
 72
     2
 73
     2
 90
        0
 40
-0.6
 41
-30.0
 62
     5
 63
     7
421
 16777215
 74
     2
 91
        2
 64
     7
 65
     7
 75
     1
175
     1
 42
40.0
 92
       11
 66
     7
 43
1.0
 76
     1
 77
     6
 78
     2
 67
     7
 79
     6
170
     0
171
     0
290
     0
174
     0
 93
        1
 44
0.0
173
     0
291
     0
 45
0.0
1001
ACAD
1000
AcDbSavedByObjectVersion
1070
     0
  0
VISUALSTYLE
  5
36
102
{ACAD_XDICTIONARY
360
177
102
}
102
{ACAD_REACTORS
330
29
102
}
330
29
100
AcDbVisualStyle
  2
Thicken
 70
    13
 71
     2
 72
     2
 73
     0
 90
        0
 40
-0.6
 41
-30.0
 62
     5
 63
     7
421
 16777215
 74
     1
 91
        4
 64
     7
 65
   257
 75
     1
175
     1
 42
1.0
 92
       12
 66
     7
 43
1.0
 76
     1
 77
     6
 78
     2
 67
     7
 79
     5
170
     0
171
     0
290
     0
174
     0
 93
        1
 44
0.0
173
     0
291
     1
 45
0.0
1001
ACAD
1000
AcDbSavedByObjectVersion
1070
     0
  0
VISUALSTYLE
  5
30
102
{ACAD_XDICTIONARY
360
16B
102
}
102
{ACAD_REACTORS
330
29
102
}
330
29
100
AcDbVisualStyle
  2
Wireframe
 70
     5
 71
     0
 72
     2
 73
     0
 90
        0
 40
-0.6
 41
-30.0
 62
     5
 63
     7
421
 16777215
 74
     1
 91
        4
 64
     7
 65
   257
 75
     1
175
     1
 42
1.0
 92
        0
 66
   257
 43
1.0
 76
     1
 77
     6
 78
     2
 67
     7
 79
     3
170
     0
171
     0
290
     0
174
     0
 93
        1
 44
0.0
173
     0
291
     0
 45
0.0
1001
ACAD
1000
AcDbSavedByObjectVersion
1070
     0
  0
VISUALSTYLE
  5
3C
102
{ACAD_XDICTIONARY
360
183
102
}
102
{ACAD_REACTORS
330
29
102
}
330
29
100
AcDbVisualStyle
  2
X-Ray
 70
    25
 71
     2
 72
     2
 73
     1
 90
        1
 40
0.5
 41
-30.0
 62
     5
 63
     7
421
 16777215
 74
     1
 91
        0
 64
     7
 65
   257
 75
     1
175
     1
 42
1.0
 92
        8
 66
     7
 43
1.0
 76
     1
 77
     6
 78
     2
 67
     7
 79
     3
170
     0
171
     0
290
     0
174
     0
 93
       13
 44
0.0
173
     0
291
     0
 45
0.0
1001
ACAD
1000
AcDbSavedByObjectVersion
1070
     0
  0
DICTIONARYVAR
  5
15A
102
{ACAD_REACTORS
330
155
102
}
330
155
100
DictionaryVariables
280
     0
  1
1:1
  0
DICTIONARYVAR
  5
157
102
{ACAD_REACTORS
330
155
102
}
330
155
100
DictionaryVariables
280
     0
  1
STANDARD
  0
DICTIONARYVAR
  5
156
102
{ACAD_REACTORS
330
155
102
}
330
155
100
DictionaryVariables
280
     0
  1
STANDARD
  0
DICTIONARYVAR
  5
158
102
{ACAD_REACTORS
330
155
102
}
330
155
100
DictionaryVariables
280
     0
  1
Imperial24
  0
DICTIONARYVAR
  5
159
102
{ACAD_REACTORS
330
155
102
}
330
155
100
DictionaryVariables
280
     0
  1
Imperial24
  0
DICTIONARYVAR
  5
15B
102
{ACAD_REACTORS
330
155
102
}
330
155
100
DictionaryVariables
280
     0
  1
2
  0
DICTIONARY
  5
194
330
6B
100
AcDbDictionary
280
     1
281
     1
  3
ACAD_XREC_ROUNDTRIP
360
195
  0
DICTIONARY
  5
1A
330
19
100
AcDbDictionary
280
     1
281
     1
  3
BUMPTILE
360
1C
  3
DIFFUSETILE
360
1B
  3
OPACITYTILE
360
1F
  3
REFLECTIONTILE
360
1E
  3
REFRACTIONTILE
360
20
  3
SPECULARTILE
360
1D
  0
DICTIONARY
  5
12
330
11
100
AcDbDictionary
280
     1
281
     1
  3
BUMPTILE
360
14
  3
DIFFUSETILE
360
13
  3
OPACITYTILE
360
17
  3
REFLECTIONTILE
360
16
  3
REFRACTIONTILE
360
18
  3
SPECULARTILE
360
15
  0
DICTIONARY
  5
22
330
21
100
AcDbDictionary
280
     1
281
     1
  3
BUMPTILE
360
24
  3
DIFFUSETILE
360
23
  3
OPACITYTILE
360
27
  3
REFLECTIONTILE
360
26
  3
REFRACTIONTILE
360
28
  3
SPECULARTILE
360
25
  0
DICTIONARY
  5
190
330
67
100
AcDbDictionary
280
     1
281
     1
  3
ACAD_XREC_ROUNDTRIP
360
191
  0
DICTIONARY
  5
192
330
69
100
AcDbDictionary
280
     1
281
     1
  3
ACAD_XREC_ROUNDTRIP
360
193
  0
DICTIONARY
  5
15C
330
65
100
AcDbDictionary
280
     1
281
     1
  3
ACAD_ROUNDTRIP_2008_TABLESTYLE_CELLSTYLEMAP
360
15D
  0
DICTIONARY
  5
169
330
2F
100
AcDbDictionary
280
     1
281
     1
  3
ACAD_XREC_ROUNDTRIP
360
16A
  0
DICTIONARY
  5
167
330
2E
100
AcDbDictionary
280
     1
281
     1
  3
ACAD_XREC_ROUNDTRIP
360
168
  0
DICTIONARY
  5
175
330
35
100
AcDbDictionary
280
     1
281
     1
  3
ACAD_XREC_ROUNDTRIP
360
176
  0
DICTIONARY
  5
17D
330
39
100
AcDbDictionary
280
     1
281
     1
  3
ACAD_XREC_ROUNDTRIP
360
17E
  0
DICTIONARY
  5
16F
330
32
100
AcDbDictionary
280
     1
281
     1
  3
ACAD_XREC_ROUNDTRIP
360
170
  0
DICTIONARY
  5
173
330
34
100
AcDbDictionary
280
     1
281
     1
  3
ACAD_XREC_ROUNDTRIP
360
174
  0
DICTIONARY
  5
18D
330
41
100
AcDbDictionary
280
     1
281
     1
  3
ACAD_XREC_ROUNDTRIP
360
18E
  0
DICTIONARY
  5
17B
330
38
100
AcDbDictionary
280
     1
281
     1
  3
ACAD_XREC_ROUNDTRIP
360
17C
  0
DICTIONARY
  5
15F
330
2A
100
AcDbDictionary
280
     1
281
     1
  3
ACAD_XREC_ROUNDTRIP
360
160
  0
DICTIONARY
  5
161
330
2B
100
AcDbDictionary
280
     1
281
     1
  3
ACAD_XREC_ROUNDTRIP
360
162
  0
DICTIONARY
  5
163
330
2C
100
AcDbDictionary
280
     1
281
     1
  3
ACAD_XREC_ROUNDTRIP
360
164
  0
DICTIONARY
  5
165
330
2D
100
AcDbDictionary
280
     1
281
     1
  3
ACAD_XREC_ROUNDTRIP
360
166
  0
DICTIONARY
  5
16D
330
31
100
AcDbDictionary
280
     1
281
     1
  3
ACAD_XREC_ROUNDTRIP
360
16E
  0
DICTIONARY
  5
189
330
3F
100
AcDbDictionary
280
     1
281
     1
  3
ACAD_XREC_ROUNDTRIP
360
18A
  0
DICTIONARY
  5
179
330
37
100
AcDbDictionary
280
     1
281
     1
  3
ACAD_XREC_ROUNDTRIP
360
17A
  0
DICTIONARY
  5
18B
330
40
100
AcDbDictionary
280
     1
281
     1
  3
ACAD_XREC_ROUNDTRIP
360
18C
  0
DICTIONARY
  5
171
330
33
100
AcDbDictionary
280
     1
281
     1
  3
ACAD_XREC_ROUNDTRIP
360
172
  0
DICTIONARY
  5
187
330
3E
100
AcDbDictionary
280
     1
281
     1
  3
ACAD_XREC_ROUNDTRIP
360
188
  0
DICTIONARY
  5
185
330
3D
100
AcDbDictionary
280
     1
281
     1
  3
ACAD_XREC_ROUNDTRIP
360
186
  0
DICTIONARY
  5
17F
330
3A
100
AcDbDictionary
280
     1
281
     1
  3
ACAD_XREC_ROUNDTRIP
360
180
  0
DICTIONARY
  5
181
330
3B
100
AcDbDictionary
280
     1
281
     1
  3
ACAD_XREC_ROUNDTRIP
360
182
  0
DICTIONARY
  5
177
330
36
100
AcDbDictionary
280
     1
281
     1
  3
ACAD_XREC_ROUNDTRIP
360
178
  0
DICTIONARY
  5
16B
330
30
100
AcDbDictionary
280
     1
281
     1
  3
ACAD_XREC_ROUNDTRIP
360
16C
  0
DICTIONARY
  5
183
330
3C
100
AcDbDictionary
280
     1
281
     1
  3
ACAD_XREC_ROUNDTRIP
360
184
  0
XRECORD
  5
195
102
{ACAD_REACTORS
330
194
102
}
330
194
100
AcDbXrecord
280
     1
102
DISPLAYNAME
  1
Imperial24
102
FLAGS
 90
        0
  0
XRECORD
  5
1C
102
{ACAD_REACTORS
330
1A
102
}
330
1A
100
AcDbXrecord
280
     1
270
     1
271
     1
  0
XRECORD
  5
1B
102
{ACAD_REACTORS
330
1A
102
}
330
1A
100
AcDbXrecord
280
     1
270
     1
271
     1
  0
XRECORD
  5
1F
102
{ACAD_REACTORS
330
1A
102
}
330
1A
100
AcDbXrecord
280
     1
270
     1
271
     1
  0
XRECORD
  5
1E
102
{ACAD_REACTORS
330
1A
102
}
330
1A
100
AcDbXrecord
280
     1
270
     1
271
     1
  0
XRECORD
  5
20
102
{ACAD_REACTORS
330
1A
102
}
330
1A
100
AcDbXrecord
280
     1
270
     1
271
     1
  0
XRECORD
  5
1D
102
{ACAD_REACTORS
330
1A
102
}
330
1A
100
AcDbXrecord
280
     1
270
     1
271
     1
  0
XRECORD
  5
14
102
{ACAD_REACTORS
330
12
102
}
330
12
100
AcDbXrecord
280
     1
270
     1
271
     1
  0
XRECORD
  5
13
102
{ACAD_REACTORS
330
12
102
}
330
12
100
AcDbXrecord
280
     1
270
     1
271
     1
  0
XRECORD
  5
17
102
{ACAD_REACTORS
330
12
102
}
330
12
100
AcDbXrecord
280
     1
270
     1
271
     1
  0
XRECORD
  5
16
102
{ACAD_REACTORS
330
12
102
}
330
12
100
AcDbXrecord
280
     1
270
     1
271
     1
  0
XRECORD
  5
18
102
{ACAD_REACTORS
330
12
102
}
330
12
100
AcDbXrecord
280
     1
270
     1
271
     1
  0
XRECORD
  5
15
102
{ACAD_REACTORS
330
12
102
}
330
12
100
AcDbXrecord
280
     1
270
     1
271
     1
  0
XRECORD
  5
24
102
{ACAD_REACTORS
330
22
102
}
330
22
100
AcDbXrecord
280
     1
270
     1
271
     1
  0
XRECORD
  5
23
102
{ACAD_REACTORS
330
22
102
}
330
22
100
AcDbXrecord
280
     1
270
     1
271
     1
  0
XRECORD
  5
27
102
{ACAD_REACTORS
330
22
102
}
330
22
100
AcDbXrecord
280
     1
270
     1
271
     1
  0
XRECORD
  5
26
102
{ACAD_REACTORS
330
22
102
}
330
22
100
AcDbXrecord
280
     1
270
     1
271
     1
  0
XRECORD
  5
28
102
{ACAD_REACTORS
330
22
102
}
330
22
100
AcDbXrecord
280
     1
270
     1
271
     1
  0
XRECORD
  5
25
102
{ACAD_REACTORS
330
22
102
}
330
22
100
AcDbXrecord
280
     1
270
     1
271
     1
  0
XRECORD
  5
191
102
{ACAD_REACTORS
330
190
102
}
330
190
100
AcDbXrecord
280
     1
102
ACAD_ROUNDTRIP_2012_MLEADER_STYLE
298
     1
  0
XRECORD
  5
193
102
{ACAD_REACTORS
330
192
102
}
330
192
100
AcDbXrecord
280
     1
102
DISPLAYNAME
  1
Imperial24
102
FLAGS
 90
        0
  0
CELLSTYLEMAP
  5
15D
102
{ACAD_REACTORS
330
15C
102
}
330
15C
100
AcDbCellStyleMap
 90
        3
300
CELLSTYLE
  1
TABLEFORMAT_BEGIN
 90
        5
170
     1
 91
        0
 92
    32768
 62
   257
 93
        1
300
CONTENTFORMAT
  1
CONTENTFORMAT_BEGIN
 90
        0
 91
        0
 92
      512
 93
        0
300

 40
0.0
140
1.0
 94
        5
 62
     0
340
55
144
0.25
309
CONTENTFORMAT_END
171
     0
 94
        0
309
TABLEFORMAT_END
  1
CELLSTYLE_BEGIN
 90
        1
 91
        1
300
_TITLE
309
CELLSTYLE_END
300
CELLSTYLE
  1
TABLEFORMAT_BEGIN
 90
        5
170
     1
 91
        0
 92
        0
 62
   257
 93
        1
300
CONTENTFORMAT
  1
CONTENTFORMAT_BEGIN
 90
        0
 91
        0
 92
      512
 93
        0
300

 40
0.0
140
1.0
 94
        5
 62
     0
340
55
144
0.18
309
CONTENTFORMAT_END
171
     0
 94
        0
309
TABLEFORMAT_END
  1
CELLSTYLE_BEGIN
 90
        2
 91
        1
300
_HEADER
309
CELLSTYLE_END
300
CELLSTYLE
  1
TABLEFORMAT_BEGIN
 90
        5
170
     1
 91
        0
 92
        0
 62
   257
 93
        1
300
CONTENTFORMAT
  1
CONTENTFORMAT_BEGIN
 90
        0
 91
        0
 92
      512
 93
        0
300

 40
0.0
140
1.0
 94
        2
 62
     0
340
55
144
0.18
309
CONTENTFORMAT_END
171
     0
 94
        0
309
TABLEFORMAT_END
  1
CELLSTYLE_BEGIN
 90
        3
 91
        2
300
_DATA
309
CELLSTYLE_END
  0
XRECORD
  5
16A
102
{ACAD_REACTORS
330
169
102
}
330
169
100
AcDbXrecord
280
     1
102
RTVSPost2010Prop28
280
     1
102
RTVSPost2010PropOp28
 70
     1
102
RTVSPost2010Prop29
280
     1
102
RTVSPost2010PropOp29
 70
     1
102
RTVSPost2010Prop30
280
     0
102
RTVSPost2010PropOp30
 70
     1
102
RTVSPost2010Prop31
280
     0
102
RTVSPost2010PropOp31
 70
     1
102
RTVSPost2010Prop32
280
     0
102
RTVSPost2010PropOp32
 70
     1
102
RTVSPost2010Prop33
280
     0
102
RTVSPost2010PropOp33
 70
     1
102
RTVSPost2010Prop34
280
     0
102
RTVSPost2010PropOp34
 70
     1
102
RTVSPost2010Prop35
280
     0
102
RTVSPost2010PropOp35
 70
     1
102
RTVSPost2010Prop36
280
     0
102
RTVSPost2010PropOp36
 70
     1
102
RTVSPost2010Prop37
 90
       50
102
RTVSPost2010PropOp37
 70
     1
102
RTVSPost2010Prop38
140
0.0
102
RTVSPost2010PropOp38
 70
     1
102
RTVSPost2010Prop39
140
1.0
102
RTVSPost2010PropOp39
 70
     1
102
RTVSPost2010Prop40
 90
        0
102
RTVSPost2010PropOp40
 70
     1
102
RTVSPost2010Prop41ColorIndex
 90
       18
102
RTVSPost2010Prop41ColorRGB
 90
        0
102
RTVSPost2010PropOp41
 70
     1
102
RTVSPost2010Prop42
 90
       50
102
RTVSPost2010PropOp42
 70
     1
102
RTVSPost2010Prop43
 90
        3
102
RTVSPost2010PropOp43
 70
     1
102
RTVSPost2010Prop44ColorIndex
 90
        5
102
RTVSPost2010Prop44ColorRGB
 90
      255
102
RTVSPost2010PropOp44
 70
     1
102
RTVSPost2010Prop45
280
     0
102
RTVSPost2010PropOp45
 70
     1
102
RTVSPost2010Prop46
 90
       50
102
RTVSPost2010PropOp46
 70
     1
102
RTVSPost2010Prop47
 90
       50
102
RTVSPost2010PropOp47
 70
     1
102
RTVSPost2010Prop48
 90
       50
102
RTVSPost2010PropOp48
 70
     1
102
RTVSPost2010Prop49
280
     0
102
RTVSPost2010PropOp49
 70
     1
102
RTVSPost2010Prop50
 90
       50
102
RTVSPost2010PropOp50
 70
     1
102
RTVSPost2010Prop51ColorIndex
 90
      256
102
RTVSPost2010Prop51ColorRGB
 90
-16777216
102
RTVSPost2010PropOp51
 70
     0
102
RTVSPost2010Prop52
140
1.0
102
RTVSPost2010PropOp52
 70
     0
102
RTVSPost2010Prop53
 90
        2
102
RTVSPost2010PropOp53
 70
     1
102
RTVSPost2010Prop54
  1
strokes_ogs.tif
102
RTVSPost2010PropOp54
 70
     1
102
RTVSPost2010Prop55
280
     0
102
RTVSPost2010PropOp55
 70
     1
102
RTVSPost2010Prop56
140
1.0
102
RTVSPost2010PropOp56
 70
     1
102
RTVSPost2010Prop57
140
1.0
102
RTVSPost2010PropOp57
 70
     1
102
RTVSPropertyOp0
 70
     1
102
RTVSPropertyOp1
 70
     1
102
RTVSPropertyOp2
 70
     1
102
RTVSPropertyOp3
 70
     1
102
RTVSPropertyOp4
 70
     1
102
RTVSPropertyOp5
 70
     1
102
RTVSPropertyOp6
 70
     1
102
RTVSPropertyOp7
 70
     1
102
RTVSPropertyOp8
 70
     1
102
RTVSPropertyOp9
 70
     1
102
RTVSPropertyOp10
 70
     1
102
RTVSPropertyOp11
 70
     1
102
RTVSPropertyOp12
 70
     1
102
RTVSPropertyOp13
 70
     1
102
RTVSPropertyOp14
 70
     1
102
RTVSPropertyOp15
 70
     1
102
RTVSPropertyOp16
 70
     1
102
RTVSPropertyOp17
 70
     1
102
RTVSPropertyOp18
 70
     1
102
RTVSPropertyOp19
 70
     1
102
RTVSPropertyOp20
 70
     1
102
RTVSPropertyOp21
 70
     1
102
RTVSPropertyOp22
 70
     1
102
RTVSPropertyOp23
 70
     1
102
RTVSPropertyOp24
 70
     1
102
RTVSPropertyOp25
 70
     1
102
RTVSPropertyOp26
 70
     1
102
RTVSPropertyOp27
 70
     1
102
RTVSPropertyOp28
 70
     1
102
RTVSPropertyOp29
 70
     1
102
RTVSPropertyOp30
 70
     1
102
RTVSPropertyOp31
 70
     1
102
RTVSPropertyOp32
 70
     1
102
RTVSPropertyOp33
 70
     1
102
RTVSPropertyOp34
 70
     1
102
RTVSPropertyOp35
 70
     1
102
RTVSPropertyOp36
 70
     1
102
RTVSPropertyOp37
 70
     1
102
RTVSPropertyOp38
 70
     1
102
RTVSPropertyOp39
 70
     1
102
RTVSPropertyOp40
 70
     1
102
RTVSPropertyOp41
 70
     1
102
RTVSPropertyOp42
 70
     1
102
RTVSPropertyOp43
 70
     1
102
RTVSPropertyOp44
 70
     1
102
RTVSPropertyOp45
 70
     1
102
RTVSPropertyOp46
 70
     1
102
RTVSPropertyOp47
 70
     1
102
RTVSPropertyOp48
 70
     1
102
RTVSPropertyOp49
 70
     1
102
RTVSPropertyOp50
 70
     1
102
RTVSPropertyOp51
 70
     0
102
RTVSPropertyOp52
 70
     0
102
RTVSPropertyOp53
 70
     1
102
RTVSPropertyOp54
 70
     1
102
RTVSPropertyOp55
 70
     1
102
RTVSPropertyOp56
 70
     1
102
RTVSPropertyOp57
 70
     1
102
RTVSPropertyOp58
 70
     1
102
RTVSPropertyOp59
 70
     1
102
RTVSPropertyOp60
 70
     1
102
RTVSPropertyOp61
 70
     1
102
RTVSPropertyOp62
 70
     1
  0
XRECORD
  5
168
102
{ACAD_REACTORS
330
167
102
}
330
167
100
AcDbXrecord
280
     1
102
RTVSPost2010Prop28
280
     0
102
RTVSPost2010PropOp28
 70
     1
102
RTVSPost2010Prop29
280
     1
102
RTVSPost2010PropOp29
 70
     1
102
RTVSPost2010Prop30
280
     1
102
RTVSPost2010PropOp30
 70
     1
102
RTVSPost2010Prop31
280
     0
102
RTVSPost2010PropOp31
 70
     1
102
RTVSPost2010Prop32
280
     0
102
RTVSPost2010PropOp32
 70
     1
102
RTVSPost2010Prop33
280
     0
102
RTVSPost2010PropOp33
 70
     1
102
RTVSPost2010Prop34
280
     0
102
RTVSPost2010PropOp34
 70
     1
102
RTVSPost2010Prop35
280
     0
102
RTVSPost2010PropOp35
 70
     1
102
RTVSPost2010Prop36
280
     0
102
RTVSPost2010PropOp36
 70
     1
102
RTVSPost2010Prop37
 90
       50
102
RTVSPost2010PropOp37
 70
     1
102
RTVSPost2010Prop38
140
0.0
102
RTVSPost2010PropOp38
 70
     1
102
RTVSPost2010Prop39
140
1.0
102
RTVSPost2010PropOp39
 70
     1
102
RTVSPost2010Prop40
 90
        0
102
RTVSPost2010PropOp40
 70
     1
102
RTVSPost2010Prop41ColorIndex
 90
       18
102
RTVSPost2010Prop41ColorRGB
 90
        0
102
RTVSPost2010PropOp41
 70
     1
102
RTVSPost2010Prop42
 90
       50
102
RTVSPost2010PropOp42
 70
     1
102
RTVSPost2010Prop43
 90
        3
102
RTVSPost2010PropOp43
 70
     1
102
RTVSPost2010Prop44ColorIndex
 90
        5
102
RTVSPost2010Prop44ColorRGB
 90
      255
102
RTVSPost2010PropOp44
 70
     1
102
RTVSPost2010Prop45
280
     0
102
RTVSPost2010PropOp45
 70
     1
102
RTVSPost2010Prop46
 90
       50
102
RTVSPost2010PropOp46
 70
     1
102
RTVSPost2010Prop47
 90
       50
102
RTVSPost2010PropOp47
 70
     1
102
RTVSPost2010Prop48
 90
       50
102
RTVSPost2010PropOp48
 70
     1
102
RTVSPost2010Prop49
280
     0
102
RTVSPost2010PropOp49
 70
     1
102
RTVSPost2010Prop50
 90
       50
102
RTVSPost2010PropOp50
 70
     1
102
RTVSPost2010Prop51ColorIndex
 90
      256
102
RTVSPost2010Prop51ColorRGB
 90
-16777216
102
RTVSPost2010PropOp51
 70
     0
102
RTVSPost2010Prop52
140
1.0
102
RTVSPost2010PropOp52
 70
     0
102
RTVSPost2010Prop53
 90
        2
102
RTVSPost2010PropOp53
 70
     1
102
RTVSPost2010Prop54
  1
strokes_ogs.tif
102
RTVSPost2010PropOp54
 70
     1
102
RTVSPost2010Prop55
280
     0
102
RTVSPost2010PropOp55
 70
     1
102
RTVSPost2010Prop56
140
1.0
102
RTVSPost2010PropOp56
 70
     1
102
RTVSPost2010Prop57
140
1.0
102
RTVSPost2010PropOp57
 70
     1
102
RTVSPropertyOp0
 70
     1
102
RTVSPropertyOp1
 70
     1
102
RTVSPropertyOp2
 70
     1
102
RTVSPropertyOp3
 70
     1
102
RTVSPropertyOp4
 70
     1
102
RTVSPropertyOp5
 70
     1
102
RTVSPropertyOp6
 70
     1
102
RTVSPropertyOp7
 70
     1
102
RTVSPropertyOp8
 70
     1
102
RTVSPropertyOp9
 70
     1
102
RTVSPropertyOp10
 70
     1
102
RTVSPropertyOp11
 70
     1
102
RTVSPropertyOp12
 70
     1
102
RTVSPropertyOp13
 70
     1
102
RTVSPropertyOp14
 70
     1
102
RTVSPropertyOp15
 70
     1
102
RTVSPropertyOp16
 70
     1
102
RTVSPropertyOp17
 70
     1
102
RTVSPropertyOp18
 70
     1
102
RTVSPropertyOp19
 70
     1
102
RTVSPropertyOp20
 70
     1
102
RTVSPropertyOp21
 70
     1
102
RTVSPropertyOp22
 70
     1
102
RTVSPropertyOp23
 70
     1
102
RTVSPropertyOp24
 70
     1
102
RTVSPropertyOp25
 70
     1
102
RTVSPropertyOp26
 70
     1
102
RTVSPropertyOp27
 70
     1
102
RTVSPropertyOp28
 70
     1
102
RTVSPropertyOp29
 70
     1
102
RTVSPropertyOp30
 70
     1
102
RTVSPropertyOp31
 70
     1
102
RTVSPropertyOp32
 70
     1
102
RTVSPropertyOp33
 70
     1
102
RTVSPropertyOp34
 70
     1
102
RTVSPropertyOp35
 70
     1
102
RTVSPropertyOp36
 70
     1
102
RTVSPropertyOp37
 70
     1
102
RTVSPropertyOp38
 70
     1
102
RTVSPropertyOp39
 70
     1
102
RTVSPropertyOp40
 70
     1
102
RTVSPropertyOp41
 70
     1
102
RTVSPropertyOp42
 70
     1
102
RTVSPropertyOp43
 70
     1
102
RTVSPropertyOp44
 70
     1
102
RTVSPropertyOp45
 70
     1
102
RTVSPropertyOp46
 70
     1
102
RTVSPropertyOp47
 70
     1
102
RTVSPropertyOp48
 70
     1
102
RTVSPropertyOp49
 70
     1
102
RTVSPropertyOp50
 70
     1
102
RTVSPropertyOp51
 70
     0
102
RTVSPropertyOp52
 70
     0
102
RTVSPropertyOp53
 70
     1
102
RTVSPropertyOp54
 70
     1
102
RTVSPropertyOp55
 70
     1
102
RTVSPropertyOp56
 70
     1
102
RTVSPropertyOp57
 70
     1
102
RTVSPropertyOp58
 70
     1
102
RTVSPropertyOp59
 70
     1
102
RTVSPropertyOp60
 70
     1
102
RTVSPropertyOp61
 70
     1
102
RTVSPropertyOp62
 70
     1
  0
XRECORD
  5
176
102
{ACAD_REACTORS
330
175
102
}
330
175
100
AcDbXrecord
280
     1
102
RTVSPost2010Prop28
280
     0
102
RTVSPost2010PropOp28
 70
     1
102
RTVSPost2010Prop29
280
     1
102
RTVSPost2010PropOp29
 70
     1
102
RTVSPost2010Prop30
280
     1
102
RTVSPost2010PropOp30
 70
     1
102
RTVSPost2010Prop31
280
     0
102
RTVSPost2010PropOp31
 70
     1
102
RTVSPost2010Prop32
280
     0
102
RTVSPost2010PropOp32
 70
     1
102
RTVSPost2010Prop33
280
     0
102
RTVSPost2010PropOp33
 70
     1
102
RTVSPost2010Prop34
280
     0
102
RTVSPost2010PropOp34
 70
     1
102
RTVSPost2010Prop35
280
     0
102
RTVSPost2010PropOp35
 70
     1
102
RTVSPost2010Prop36
280
     0
102
RTVSPost2010PropOp36
 70
     1
102
RTVSPost2010Prop37
 90
       50
102
RTVSPost2010PropOp37
 70
     1
102
RTVSPost2010Prop38
140
0.0
102
RTVSPost2010PropOp38
 70
     1
102
RTVSPost2010Prop39
140
1.0
102
RTVSPost2010PropOp39
 70
     1
102
RTVSPost2010Prop40
 90
        0
102
RTVSPost2010PropOp40
 70
     1
102
RTVSPost2010Prop41ColorIndex
 90
       18
102
RTVSPost2010Prop41ColorRGB
 90
        0
102
RTVSPost2010PropOp41
 70
     1
102
RTVSPost2010Prop42
 90
       50
102
RTVSPost2010PropOp42
 70
     1
102
RTVSPost2010Prop43
 90
        3
102
RTVSPost2010PropOp43
 70
     1
102
RTVSPost2010Prop44ColorIndex
 90
        5
102
RTVSPost2010Prop44ColorRGB
 90
      255
102
RTVSPost2010PropOp44
 70
     1
102
RTVSPost2010Prop45
280
     0
102
RTVSPost2010PropOp45
 70
     1
102
RTVSPost2010Prop46
 90
       50
102
RTVSPost2010PropOp46
 70
     1
102
RTVSPost2010Prop47
 90
       50
102
RTVSPost2010PropOp47
 70
     1
102
RTVSPost2010Prop48
 90
       50
102
RTVSPost2010PropOp48
 70
     1
102
RTVSPost2010Prop49
280
     0
102
RTVSPost2010PropOp49
 70
     1
102
RTVSPost2010Prop50
 90
       50
102
RTVSPost2010PropOp50
 70
     1
102
RTVSPost2010Prop51ColorIndex
 90
      256
102
RTVSPost2010Prop51ColorRGB
 90
-16777216
102
RTVSPost2010PropOp51
 70
     0
102
RTVSPost2010Prop52
140
1.0
102
RTVSPost2010PropOp52
 70
     0
102
RTVSPost2010Prop53
 90
        2
102
RTVSPost2010PropOp53
 70
     1
102
RTVSPost2010Prop54
  1
strokes_ogs.tif
102
RTVSPost2010PropOp54
 70
     1
102
RTVSPost2010Prop55
280
     0
102
RTVSPost2010PropOp55
 70
     1
102
RTVSPost2010Prop56
140
1.0
102
RTVSPost2010PropOp56
 70
     1
102
RTVSPost2010Prop57
140
1.0
102
RTVSPost2010PropOp57
 70
     1
102
RTVSPropertyOp0
 70
     1
102
RTVSPropertyOp1
 70
     1
102
RTVSPropertyOp2
 70
     1
102
RTVSPropertyOp3
 70
     1
102
RTVSPropertyOp4
 70
     1
102
RTVSPropertyOp5
 70
     1
102
RTVSPropertyOp6
 70
     1
102
RTVSPropertyOp7
 70
     1
102
RTVSPropertyOp8
 70
     1
102
RTVSPropertyOp9
 70
     1
102
RTVSPropertyOp10
 70
     1
102
RTVSPropertyOp11
 70
     1
102
RTVSPropertyOp12
 70
     1
102
RTVSPropertyOp13
 70
     1
102
RTVSPropertyOp14
 70
     1
102
RTVSPropertyOp15
 70
     1
102
RTVSPropertyOp16
 70
     1
102
RTVSPropertyOp17
 70
     1
102
RTVSPropertyOp18
 70
     1
102
RTVSPropertyOp19
 70
     1
102
RTVSPropertyOp20
 70
     1
102
RTVSPropertyOp21
 70
     1
102
RTVSPropertyOp22
 70
     1
102
RTVSPropertyOp23
 70
     1
102
RTVSPropertyOp24
 70
     1
102
RTVSPropertyOp25
 70
     1
102
RTVSPropertyOp26
 70
     1
102
RTVSPropertyOp27
 70
     1
102
RTVSPropertyOp28
 70
     1
102
RTVSPropertyOp29
 70
     1
102
RTVSPropertyOp30
 70
     1
102
RTVSPropertyOp31
 70
     1
102
RTVSPropertyOp32
 70
     1
102
RTVSPropertyOp33
 70
     1
102
RTVSPropertyOp34
 70
     1
102
RTVSPropertyOp35
 70
     1
102
RTVSPropertyOp36
 70
     1
102
RTVSPropertyOp37
 70
     1
102
RTVSPropertyOp38
 70
     1
102
RTVSPropertyOp39
 70
     1
102
RTVSPropertyOp40
 70
     1
102
RTVSPropertyOp41
 70
     1
102
RTVSPropertyOp42
 70
     1
102
RTVSPropertyOp43
 70
     1
102
RTVSPropertyOp44
 70
     1
102
RTVSPropertyOp45
 70
     1
102
RTVSPropertyOp46
 70
     1
102
RTVSPropertyOp47
 70
     1
102
RTVSPropertyOp48
 70
     1
102
RTVSPropertyOp49
 70
     1
102
RTVSPropertyOp50
 70
     1
102
RTVSPropertyOp51
 70
     0
102
RTVSPropertyOp52
 70
     0
102
RTVSPropertyOp53
 70
     1
102
RTVSPropertyOp54
 70
     1
102
RTVSPropertyOp55
 70
     1
102
RTVSPropertyOp56
 70
     1
102
RTVSPropertyOp57
 70
     1
102
RTVSPropertyOp58
 70
     1
102
RTVSPropertyOp59
 70
     1
102
RTVSPropertyOp60
 70
     1
102
RTVSPropertyOp61
 70
     1
102
RTVSPropertyOp62
 70
     1
  0
XRECORD
  5
17E
102
{ACAD_REACTORS
330
17D
102
}
330
17D
100
AcDbXrecord
280
     1
102
RTVSPost2010Prop28
280
     0
102
RTVSPost2010PropOp28
 70
     1
102
RTVSPost2010Prop29
280
     1
102
RTVSPost2010PropOp29
 70
     1
102
RTVSPost2010Prop30
280
     1
102
RTVSPost2010PropOp30
 70
     1
102
RTVSPost2010Prop31
280
     0
102
RTVSPost2010PropOp31
 70
     1
102
RTVSPost2010Prop32
280
     0
102
RTVSPost2010PropOp32
 70
     1
102
RTVSPost2010Prop33
280
     0
102
RTVSPost2010PropOp33
 70
     1
102
RTVSPost2010Prop34
280
     0
102
RTVSPost2010PropOp34
 70
     1
102
RTVSPost2010Prop35
280
     0
102
RTVSPost2010PropOp35
 70
     1
102
RTVSPost2010Prop36
280
     0
102
RTVSPost2010PropOp36
 70
     1
102
RTVSPost2010Prop37
 90
       50
102
RTVSPost2010PropOp37
 70
     1
102
RTVSPost2010Prop38
140
0.0
102
RTVSPost2010PropOp38
 70
     1
102
RTVSPost2010Prop39
140
1.0
102
RTVSPost2010PropOp39
 70
     1
102
RTVSPost2010Prop40
 90
        0
102
RTVSPost2010PropOp40
 70
     1
102
RTVSPost2010Prop41ColorIndex
 90
       18
102
RTVSPost2010Prop41ColorRGB
 90
        0
102
RTVSPost2010PropOp41
 70
     1
102
RTVSPost2010Prop42
 90
       50
102
RTVSPost2010PropOp42
 70
     1
102
RTVSPost2010Prop43
 90
        3
102
RTVSPost2010PropOp43
 70
     1
102
RTVSPost2010Prop44ColorIndex
 90
        5
102
RTVSPost2010Prop44ColorRGB
 90
      255
102
RTVSPost2010PropOp44
 70
     1
102
RTVSPost2010Prop45
280
     0
102
RTVSPost2010PropOp45
 70
     1
102
RTVSPost2010Prop46
 90
       50
102
RTVSPost2010PropOp46
 70
     1
102
RTVSPost2010Prop47
 90
       50
102
RTVSPost2010PropOp47
 70
     1
102
RTVSPost2010Prop48
 90
       50
102
RTVSPost2010PropOp48
 70
     1
102
RTVSPost2010Prop49
280
     0
102
RTVSPost2010PropOp49
 70
     1
102
RTVSPost2010Prop50
 90
       50
102
RTVSPost2010PropOp50
 70
     1
102
RTVSPost2010Prop51ColorIndex
 90
      256
102
RTVSPost2010Prop51ColorRGB
 90
-16777216
102
RTVSPost2010PropOp51
 70
     0
102
RTVSPost2010Prop52
140
1.0
102
RTVSPost2010PropOp52
 70
     0
102
RTVSPost2010Prop53
 90
        2
102
RTVSPost2010PropOp53
 70
     1
102
RTVSPost2010Prop54
  1
strokes_ogs.tif
102
RTVSPost2010PropOp54
 70
     1
102
RTVSPost2010Prop55
280
     0
102
RTVSPost2010PropOp55
 70
     1
102
RTVSPost2010Prop56
140
1.0
102
RTVSPost2010PropOp56
 70
     1
102
RTVSPost2010Prop57
140
1.0
102
RTVSPost2010PropOp57
 70
     1
102
RTVSPropertyOp0
 70
     1
102
RTVSPropertyOp1
 70
     1
102
RTVSPropertyOp2
 70
     1
102
RTVSPropertyOp3
 70
     1
102
RTVSPropertyOp4
 70
     1
102
RTVSPropertyOp5
 70
     1
102
RTVSPropertyOp6
 70
     1
102
RTVSPropertyOp7
 70
     1
102
RTVSPropertyOp8
 70
     1
102
RTVSPropertyOp9
 70
     1
102
RTVSPropertyOp10
 70
     1
102
RTVSPropertyOp11
 70
     1
102
RTVSPropertyOp12
 70
     1
102
RTVSPropertyOp13
 70
     1
102
RTVSPropertyOp14
 70
     1
102
RTVSPropertyOp15
 70
     1
102
RTVSPropertyOp16
 70
     1
102
RTVSPropertyOp17
 70
     1
102
RTVSPropertyOp18
 70
     1
102
RTVSPropertyOp19
 70
     1
102
RTVSPropertyOp20
 70
     1
102
RTVSPropertyOp21
 70
     1
102
RTVSPropertyOp22
 70
     1
102
RTVSPropertyOp23
 70
     1
102
RTVSPropertyOp24
 70
     1
102
RTVSPropertyOp25
 70
     1
102
RTVSPropertyOp26
 70
     1
102
RTVSPropertyOp27
 70
     1
102
RTVSPropertyOp28
 70
     1
102
RTVSPropertyOp29
 70
     1
102
RTVSPropertyOp30
 70
     1
102
RTVSPropertyOp31
 70
     1
102
RTVSPropertyOp32
 70
     1
102
RTVSPropertyOp33
 70
     1
102
RTVSPropertyOp34
 70
     1
102
RTVSPropertyOp35
 70
     1
102
RTVSPropertyOp36
 70
     1
102
RTVSPropertyOp37
 70
     1
102
RTVSPropertyOp38
 70
     1
102
RTVSPropertyOp39
 70
     1
102
RTVSPropertyOp40
 70
     1
102
RTVSPropertyOp41
 70
     1
102
RTVSPropertyOp42
 70
     1
102
RTVSPropertyOp43
 70
     1
102
RTVSPropertyOp44
 70
     1
102
RTVSPropertyOp45
 70
     1
102
RTVSPropertyOp46
 70
     1
102
RTVSPropertyOp47
 70
     1
102
RTVSPropertyOp48
 70
     1
102
RTVSPropertyOp49
 70
     1
102
RTVSPropertyOp50
 70
     1
102
RTVSPropertyOp51
 70
     0
102
RTVSPropertyOp52
 70
     0
102
RTVSPropertyOp53
 70
     1
102
RTVSPropertyOp54
 70
     1
102
RTVSPropertyOp55
 70
     1
102
RTVSPropertyOp56
 70
     1
102
RTVSPropertyOp57
 70
     1
102
RTVSPropertyOp58
 70
     1
102
RTVSPropertyOp59
 70
     1
102
RTVSPropertyOp60
 70
     1
102
RTVSPropertyOp61
 70
     1
102
RTVSPropertyOp62
 70
     1
  0
XRECORD
  5
170
102
{ACAD_REACTORS
330
16F
102
}
330
16F
100
AcDbXrecord
280
     1
102
RTVSPost2010Prop28
280
     0
102
RTVSPost2010PropOp28
 70
     1
102
RTVSPost2010Prop29
280
     1
102
RTVSPost2010PropOp29
 70
     1
102
RTVSPost2010Prop30
280
     1
102
RTVSPost2010PropOp30
 70
     1
102
RTVSPost2010Prop31
280
     0
102
RTVSPost2010PropOp31
 70
     1
102
RTVSPost2010Prop32
280
     0
102
RTVSPost2010PropOp32
 70
     1
102
RTVSPost2010Prop33
280
     0
102
RTVSPost2010PropOp33
 70
     1
102
RTVSPost2010Prop34
280
     0
102
RTVSPost2010PropOp34
 70
     1
102
RTVSPost2010Prop35
280
     0
102
RTVSPost2010PropOp35
 70
     1
102
RTVSPost2010Prop36
280
     0
102
RTVSPost2010PropOp36
 70
     1
102
RTVSPost2010Prop37
 90
       50
102
RTVSPost2010PropOp37
 70
     1
102
RTVSPost2010Prop38
140
0.0
102
RTVSPost2010PropOp38
 70
     1
102
RTVSPost2010Prop39
140
1.0
102
RTVSPost2010PropOp39
 70
     1
102
RTVSPost2010Prop40
 90
        0
102
RTVSPost2010PropOp40
 70
     1
102
RTVSPost2010Prop41ColorIndex
 90
       18
102
RTVSPost2010Prop41ColorRGB
 90
        0
102
RTVSPost2010PropOp41
 70
     1
102
RTVSPost2010Prop42
 90
       50
102
RTVSPost2010PropOp42
 70
     1
102
RTVSPost2010Prop43
 90
        3
102
RTVSPost2010PropOp43
 70
     1
102
RTVSPost2010Prop44ColorIndex
 90
        5
102
RTVSPost2010Prop44ColorRGB
 90
      255
102
RTVSPost2010PropOp44
 70
     1
102
RTVSPost2010Prop45
280
     0
102
RTVSPost2010PropOp45
 70
     1
102
RTVSPost2010Prop46
 90
       50
102
RTVSPost2010PropOp46
 70
     1
102
RTVSPost2010Prop47
 90
       50
102
RTVSPost2010PropOp47
 70
     1
102
RTVSPost2010Prop48
 90
       50
102
RTVSPost2010PropOp48
 70
     1
102
RTVSPost2010Prop49
280
     0
102
RTVSPost2010PropOp49
 70
     1
102
RTVSPost2010Prop50
 90
       50
102
RTVSPost2010PropOp50
 70
     1
102
RTVSPost2010Prop51ColorIndex
 90
      256
102
RTVSPost2010Prop51ColorRGB
 90
-16777216
102
RTVSPost2010PropOp51
 70
     0
102
RTVSPost2010Prop52
140
1.0
102
RTVSPost2010PropOp52
 70
     0
102
RTVSPost2010Prop53
 90
        2
102
RTVSPost2010PropOp53
 70
     1
102
RTVSPost2010Prop54
  1
strokes_ogs.tif
102
RTVSPost2010PropOp54
 70
     1
102
RTVSPost2010Prop55
280
     0
102
RTVSPost2010PropOp55
 70
     1
102
RTVSPost2010Prop56
140
1.0
102
RTVSPost2010PropOp56
 70
     1
102
RTVSPost2010Prop57
140
1.0
102
RTVSPost2010PropOp57
 70
     1
102
RTVSPropertyOp0
 70
     1
102
RTVSPropertyOp1
 70
     1
102
RTVSPropertyOp2
 70
     1
102
RTVSPropertyOp3
 70
     1
102
RTVSPropertyOp4
 70
     1
102
RTVSPropertyOp5
 70
     1
102
RTVSPropertyOp6
 70
     1
102
RTVSPropertyOp7
 70
     1
102
RTVSPropertyOp8
 70
     1
102
RTVSPropertyOp9
 70
     1
102
RTVSPropertyOp10
 70
     1
102
RTVSPropertyOp11
 70
     1
102
RTVSPropertyOp12
 70
     1
102
RTVSPropertyOp13
 70
     1
102
RTVSPropertyOp14
 70
     1
102
RTVSPropertyOp15
 70
     1
102
RTVSPropertyOp16
 70
     1
102
RTVSPropertyOp17
 70
     1
102
RTVSPropertyOp18
 70
     1
102
RTVSPropertyOp19
 70
     1
102
RTVSPropertyOp20
 70
     1
102
RTVSPropertyOp21
 70
     1
102
RTVSPropertyOp22
 70
     1
102
RTVSPropertyOp23
 70
     1
102
RTVSPropertyOp24
 70
     1
102
RTVSPropertyOp25
 70
     1
102
RTVSPropertyOp26
 70
     1
102
RTVSPropertyOp27
 70
     1
102
RTVSPropertyOp28
 70
     1
102
RTVSPropertyOp29
 70
     1
102
RTVSPropertyOp30
 70
     1
102
RTVSPropertyOp31
 70
     1
102
RTVSPropertyOp32
 70
     1
102
RTVSPropertyOp33
 70
     1
102
RTVSPropertyOp34
 70
     1
102
RTVSPropertyOp35
 70
     1
102
RTVSPropertyOp36
 70
     1
102
RTVSPropertyOp37
 70
     1
102
RTVSPropertyOp38
 70
     1
102
RTVSPropertyOp39
 70
     1
102
RTVSPropertyOp40
 70
     1
102
RTVSPropertyOp41
 70
     1
102
RTVSPropertyOp42
 70
     1
102
RTVSPropertyOp43
 70
     1
102
RTVSPropertyOp44
 70
     1
102
RTVSPropertyOp45
 70
     1
102
RTVSPropertyOp46
 70
     1
102
RTVSPropertyOp47
 70
     1
102
RTVSPropertyOp48
 70
     1
102
RTVSPropertyOp49
 70
     1
102
RTVSPropertyOp50
 70
     1
102
RTVSPropertyOp51
 70
     0
102
RTVSPropertyOp52
 70
     0
102
RTVSPropertyOp53
 70
     1
102
RTVSPropertyOp54
 70
     1
102
RTVSPropertyOp55
 70
     1
102
RTVSPropertyOp56
 70
     1
102
RTVSPropertyOp57
 70
     1
102
RTVSPropertyOp58
 70
     1
102
RTVSPropertyOp59
 70
     1
102
RTVSPropertyOp60
 70
     1
102
RTVSPropertyOp61
 70
     1
102
RTVSPropertyOp62
 70
     1
  0
XRECORD
  5
174
102
{ACAD_REACTORS
330
173
102
}
330
173
100
AcDbXrecord
280
     1
102
RTVSPost2010Prop28
280
     0
102
RTVSPost2010PropOp28
 70
     1
102
RTVSPost2010Prop29
280
     1
102
RTVSPost2010PropOp29
 70
     1
102
RTVSPost2010Prop30
280
     1
102
RTVSPost2010PropOp30
 70
     1
102
RTVSPost2010Prop31
280
     0
102
RTVSPost2010PropOp31
 70
     1
102
RTVSPost2010Prop32
280
     0
102
RTVSPost2010PropOp32
 70
     1
102
RTVSPost2010Prop33
280
     0
102
RTVSPost2010PropOp33
 70
     1
102
RTVSPost2010Prop34
280
     0
102
RTVSPost2010PropOp34
 70
     1
102
RTVSPost2010Prop35
280
     0
102
RTVSPost2010PropOp35
 70
     1
102
RTVSPost2010Prop36
280
     0
102
RTVSPost2010PropOp36
 70
     1
102
RTVSPost2010Prop37
 90
       50
102
RTVSPost2010PropOp37
 70
     1
102
RTVSPost2010Prop38
140
0.0
102
RTVSPost2010PropOp38
 70
     1
102
RTVSPost2010Prop39
140
1.0
102
RTVSPost2010PropOp39
 70
     1
102
RTVSPost2010Prop40
 90
        0
102
RTVSPost2010PropOp40
 70
     1
102
RTVSPost2010Prop41ColorIndex
 90
       18
102
RTVSPost2010Prop41ColorRGB
 90
        0
102
RTVSPost2010PropOp41
 70
     1
102
RTVSPost2010Prop42
 90
       50
102
RTVSPost2010PropOp42
 70
     1
102
RTVSPost2010Prop43
 90
        3
102
RTVSPost2010PropOp43
 70
     1
102
RTVSPost2010Prop44ColorIndex
 90
        5
102
RTVSPost2010Prop44ColorRGB
 90
      255
102
RTVSPost2010PropOp44
 70
     1
102
RTVSPost2010Prop45
280
     0
102
RTVSPost2010PropOp45
 70
     1
102
RTVSPost2010Prop46
 90
       50
102
RTVSPost2010PropOp46
 70
     1
102
RTVSPost2010Prop47
 90
       50
102
RTVSPost2010PropOp47
 70
     1
102
RTVSPost2010Prop48
 90
       50
102
RTVSPost2010PropOp48
 70
     1
102
RTVSPost2010Prop49
280
     0
102
RTVSPost2010PropOp49
 70
     1
102
RTVSPost2010Prop50
 90
       50
102
RTVSPost2010PropOp50
 70
     1
102
RTVSPost2010Prop51ColorIndex
 90
      256
102
RTVSPost2010Prop51ColorRGB
 90
-16777216
102
RTVSPost2010PropOp51
 70
     0
102
RTVSPost2010Prop52
140
1.0
102
RTVSPost2010PropOp52
 70
     0
102
RTVSPost2010Prop53
 90
        2
102
RTVSPost2010PropOp53
 70
     1
102
RTVSPost2010Prop54
  1
strokes_ogs.tif
102
RTVSPost2010PropOp54
 70
     1
102
RTVSPost2010Prop55
280
     0
102
RTVSPost2010PropOp55
 70
     1
102
RTVSPost2010Prop56
140
1.0
102
RTVSPost2010PropOp56
 70
     1
102
RTVSPost2010Prop57
140
1.0
102
RTVSPost2010PropOp57
 70
     1
102
RTVSPropertyOp0
 70
     1
102
RTVSPropertyOp1
 70
     1
102
RTVSPropertyOp2
 70
     1
102
RTVSPropertyOp3
 70
     1
102
RTVSPropertyOp4
 70
     1
102
RTVSPropertyOp5
 70
     1
102
RTVSPropertyOp6
 70
     1
102
RTVSPropertyOp7
 70
     1
102
RTVSPropertyOp8
 70
     1
102
RTVSPropertyOp9
 70
     1
102
RTVSPropertyOp10
 70
     1
102
RTVSPropertyOp11
 70
     1
102
RTVSPropertyOp12
 70
     1
102
RTVSPropertyOp13
 70
     1
102
RTVSPropertyOp14
 70
     1
102
RTVSPropertyOp15
 70
     1
102
RTVSPropertyOp16
 70
     1
102
RTVSPropertyOp17
 70
     1
102
RTVSPropertyOp18
 70
     1
102
RTVSPropertyOp19
 70
     1
102
RTVSPropertyOp20
 70
     1
102
RTVSPropertyOp21
 70
     1
102
RTVSPropertyOp22
 70
     1
102
RTVSPropertyOp23
 70
     1
102
RTVSPropertyOp24
 70
     1
102
RTVSPropertyOp25
 70
     1
102
RTVSPropertyOp26
 70
     1
102
RTVSPropertyOp27
 70
     1
102
RTVSPropertyOp28
 70
     1
102
RTVSPropertyOp29
 70
     1
102
RTVSPropertyOp30
 70
     1
102
RTVSPropertyOp31
 70
     1
102
RTVSPropertyOp32
 70
     1
102
RTVSPropertyOp33
 70
     1
102
RTVSPropertyOp34
 70
     1
102
RTVSPropertyOp35
 70
     1
102
RTVSPropertyOp36
 70
     1
102
RTVSPropertyOp37
 70
     1
102
RTVSPropertyOp38
 70
     1
102
RTVSPropertyOp39
 70
     1
102
RTVSPropertyOp40
 70
     1
102
RTVSPropertyOp41
 70
     1
102
RTVSPropertyOp42
 70
     1
102
RTVSPropertyOp43
 70
     1
102
RTVSPropertyOp44
 70
     1
102
RTVSPropertyOp45
 70
     1
102
RTVSPropertyOp46
 70
     1
102
RTVSPropertyOp47
 70
     1
102
RTVSPropertyOp48
 70
     1
102
RTVSPropertyOp49
 70
     1
102
RTVSPropertyOp50
 70
     1
102
RTVSPropertyOp51
 70
     0
102
RTVSPropertyOp52
 70
     0
102
RTVSPropertyOp53
 70
     1
102
RTVSPropertyOp54
 70
     1
102
RTVSPropertyOp55
 70
     1
102
RTVSPropertyOp56
 70
     1
102
RTVSPropertyOp57
 70
     1
102
RTVSPropertyOp58
 70
     1
102
RTVSPropertyOp59
 70
     1
102
RTVSPropertyOp60
 70
     1
102
RTVSPropertyOp61
 70
     1
102
RTVSPropertyOp62
 70
     1
  0
XRECORD
  5
18E
102
{ACAD_REACTORS
330
18D
102
}
330
18D
100
AcDbXrecord
280
     1
102
RTVSPost2010Prop28
280
     0
102
RTVSPost2010PropOp28
 70
     0
102
RTVSPost2010Prop29
280
     1
102
RTVSPost2010PropOp29
 70
     0
102
RTVSPost2010Prop30
280
     1
102
RTVSPost2010PropOp30
 70
     0
102
RTVSPost2010Prop31
280
     0
102
RTVSPost2010PropOp31
 70
     0
102
RTVSPost2010Prop32
280
     0
102
RTVSPost2010PropOp32
 70
     0
102
RTVSPost2010Prop33
280
     0
102
RTVSPost2010PropOp33
 70
     0
102
RTVSPost2010Prop34
280
     0
102
RTVSPost2010PropOp34
 70
     0
102
RTVSPost2010Prop35
280
     0
102
RTVSPost2010PropOp35
 70
     0
102
RTVSPost2010Prop36
280
     0
102
RTVSPost2010PropOp36
 70
     0
102
RTVSPost2010Prop37
 90
       50
102
RTVSPost2010PropOp37
 70
     0
102
RTVSPost2010Prop38
140
0.0
102
RTVSPost2010PropOp38
 70
     0
102
RTVSPost2010Prop39
140
1.0
102
RTVSPost2010PropOp39
 70
     0
102
RTVSPost2010Prop40
 90
        0
102
RTVSPost2010PropOp40
 70
     0
102
RTVSPost2010Prop41ColorIndex
 90
       18
102
RTVSPost2010Prop41ColorRGB
 90
        0
102
RTVSPost2010PropOp41
 70
     0
102
RTVSPost2010Prop42
 90
       50
102
RTVSPost2010PropOp42
 70
     0
102
RTVSPost2010Prop43
 90
        3
102
RTVSPost2010PropOp43
 70
     0
102
RTVSPost2010Prop44ColorIndex
 90
        5
102
RTVSPost2010Prop44ColorRGB
 90
      255
102
RTVSPost2010PropOp44
 70
     0
102
RTVSPost2010Prop45
280
     0
102
RTVSPost2010PropOp45
 70
     0
102
RTVSPost2010Prop46
 90
       50
102
RTVSPost2010PropOp46
 70
     0
102
RTVSPost2010Prop47
 90
       50
102
RTVSPost2010PropOp47
 70
     0
102
RTVSPost2010Prop48
 90
       50
102
RTVSPost2010PropOp48
 70
     0
102
RTVSPost2010Prop49
280
     0
102
RTVSPost2010PropOp49
 70
     0
102
RTVSPost2010Prop50
 90
       50
102
RTVSPost2010PropOp50
 70
     0
102
RTVSPost2010Prop51ColorIndex
 90
      256
102
RTVSPost2010Prop51ColorRGB
 90
-16777216
102
RTVSPost2010PropOp51
 70
     0
102
RTVSPost2010Prop52
140
1.0
102
RTVSPost2010PropOp52
 70
     0
102
RTVSPost2010Prop53
 90
        2
102
RTVSPost2010PropOp53
 70
     0
102
RTVSPost2010Prop54
  1
strokes_ogs.tif
102
RTVSPost2010PropOp54
 70
     0
102
RTVSPost2010Prop55
280
     0
102
RTVSPost2010PropOp55
 70
     0
102
RTVSPost2010Prop56
140
1.0
102
RTVSPost2010PropOp56
 70
     0
102
RTVSPost2010Prop57
140
1.0
102
RTVSPost2010PropOp57
 70
     0
102
RTVSPropertyOp0
 70
     0
102
RTVSPropertyOp1
 70
     0
102
RTVSPropertyOp2
 70
     0
102
RTVSPropertyOp3
 70
     0
102
RTVSPropertyOp4
 70
     0
102
RTVSPropertyOp5
 70
     0
102
RTVSPropertyOp6
 70
     0
102
RTVSPropertyOp7
 70
     0
102
RTVSPropertyOp8
 70
     0
102
RTVSPropertyOp9
 70
     0
102
RTVSPropertyOp10
 70
     0
102
RTVSPropertyOp11
 70
     0
102
RTVSPropertyOp12
 70
     0
102
RTVSPropertyOp13
 70
     0
102
RTVSPropertyOp14
 70
     2
102
RTVSPropertyOp15
 70
     0
102
RTVSPropertyOp16
 70
     0
102
RTVSPropertyOp17
 70
     0
102
RTVSPropertyOp18
 70
     0
102
RTVSPropertyOp19
 70
     0
102
RTVSPropertyOp20
 70
     0
102
RTVSPropertyOp21
 70
     0
102
RTVSPropertyOp22
 70
     0
102
RTVSPropertyOp23
 70
     0
102
RTVSPropertyOp24
 70
     0
102
RTVSPropertyOp25
 70
     0
102
RTVSPropertyOp26
 70
     0
102
RTVSPropertyOp27
 70
     0
102
RTVSPropertyOp28
 70
     0
102
RTVSPropertyOp29
 70
     0
102
RTVSPropertyOp30
 70
     0
102
RTVSPropertyOp31
 70
     0
102
RTVSPropertyOp32
 70
     0
102
RTVSPropertyOp33
 70
     0
102
RTVSPropertyOp34
 70
     0
102
RTVSPropertyOp35
 70
     0
102
RTVSPropertyOp36
 70
     0
102
RTVSPropertyOp37
 70
     0
102
RTVSPropertyOp38
 70
     0
102
RTVSPropertyOp39
 70
     0
102
RTVSPropertyOp40
 70
     0
102
RTVSPropertyOp41
 70
     0
102
RTVSPropertyOp42
 70
     0
102
RTVSPropertyOp43
 70
     0
102
RTVSPropertyOp44
 70
     0
102
RTVSPropertyOp45
 70
     0
102
RTVSPropertyOp46
 70
     0
102
RTVSPropertyOp47
 70
     0
102
RTVSPropertyOp48
 70
     0
102
RTVSPropertyOp49
 70
     0
102
RTVSPropertyOp50
 70
     0
102
RTVSPropertyOp51
 70
     0
102
RTVSPropertyOp52
 70
     0
102
RTVSPropertyOp53
 70
     0
102
RTVSPropertyOp54
 70
     0
102
RTVSPropertyOp55
 70
     0
102
RTVSPropertyOp56
 70
     0
102
RTVSPropertyOp57
 70
     0
102
RTVSPropertyOp58
 70
     0
102
RTVSPropertyOp59
 70
     0
102
RTVSPropertyOp60
 70
     0
102
RTVSPropertyOp61
 70
     0
102
RTVSPropertyOp62
 70
     0
  0
XRECORD
  5
17C
102
{ACAD_REACTORS
330
17B
102
}
330
17B
100
AcDbXrecord
280
     1
102
RTVSPost2010Prop28
280
     0
102
RTVSPost2010PropOp28
 70
     1
102
RTVSPost2010Prop29
280
     1
102
RTVSPost2010PropOp29
 70
     1
102
RTVSPost2010Prop30
280
     1
102
RTVSPost2010PropOp30
 70
     1
102
RTVSPost2010Prop31
280
     0
102
RTVSPost2010PropOp31
 70
     1
102
RTVSPost2010Prop32
280
     0
102
RTVSPost2010PropOp32
 70
     1
102
RTVSPost2010Prop33
280
     0
102
RTVSPost2010PropOp33
 70
     1
102
RTVSPost2010Prop34
280
     0
102
RTVSPost2010PropOp34
 70
     1
102
RTVSPost2010Prop35
280
     0
102
RTVSPost2010PropOp35
 70
     1
102
RTVSPost2010Prop36
280
     0
102
RTVSPost2010PropOp36
 70
     1
102
RTVSPost2010Prop37
 90
       50
102
RTVSPost2010PropOp37
 70
     1
102
RTVSPost2010Prop38
140
0.0
102
RTVSPost2010PropOp38
 70
     1
102
RTVSPost2010Prop39
140
1.0
102
RTVSPost2010PropOp39
 70
     1
102
RTVSPost2010Prop40
 90
        0
102
RTVSPost2010PropOp40
 70
     1
102
RTVSPost2010Prop41ColorIndex
 90
       18
102
RTVSPost2010Prop41ColorRGB
 90
        0
102
RTVSPost2010PropOp41
 70
     1
102
RTVSPost2010Prop42
 90
       50
102
RTVSPost2010PropOp42
 70
     1
102
RTVSPost2010Prop43
 90
        3
102
RTVSPost2010PropOp43
 70
     1
102
RTVSPost2010Prop44ColorIndex
 90
        5
102
RTVSPost2010Prop44ColorRGB
 90
      255
102
RTVSPost2010PropOp44
 70
     1
102
RTVSPost2010Prop45
280
     0
102
RTVSPost2010PropOp45
 70
     1
102
RTVSPost2010Prop46
 90
       50
102
RTVSPost2010PropOp46
 70
     1
102
RTVSPost2010Prop47
 90
       50
102
RTVSPost2010PropOp47
 70
     1
102
RTVSPost2010Prop48
 90
       50
102
RTVSPost2010PropOp48
 70
     1
102
RTVSPost2010Prop49
280
     0
102
RTVSPost2010PropOp49
 70
     1
102
RTVSPost2010Prop50
 90
       50
102
RTVSPost2010PropOp50
 70
     1
102
RTVSPost2010Prop51ColorIndex
 90
      256
102
RTVSPost2010Prop51ColorRGB
 90
-16777216
102
RTVSPost2010PropOp51
 70
     0
102
RTVSPost2010Prop52
140
1.0
102
RTVSPost2010PropOp52
 70
     0
102
RTVSPost2010Prop53
 90
        2
102
RTVSPost2010PropOp53
 70
     1
102
RTVSPost2010Prop54
  1
strokes_ogs.tif
102
RTVSPost2010PropOp54
 70
     1
102
RTVSPost2010Prop55
280
     0
102
RTVSPost2010PropOp55
 70
     1
102
RTVSPost2010Prop56
140
1.0
102
RTVSPost2010PropOp56
 70
     1
102
RTVSPost2010Prop57
140
1.0
102
RTVSPost2010PropOp57
 70
     1
102
RTVSPropertyOp0
 70
     1
102
RTVSPropertyOp1
 70
     1
102
RTVSPropertyOp2
 70
     1
102
RTVSPropertyOp3
 70
     1
102
RTVSPropertyOp4
 70
     1
102
RTVSPropertyOp5
 70
     1
102
RTVSPropertyOp6
 70
     1
102
RTVSPropertyOp7
 70
     1
102
RTVSPropertyOp8
 70
     1
102
RTVSPropertyOp9
 70
     1
102
RTVSPropertyOp10
 70
     1
102
RTVSPropertyOp11
 70
     1
102
RTVSPropertyOp12
 70
     1
102
RTVSPropertyOp13
 70
     1
102
RTVSPropertyOp14
 70
     1
102
RTVSPropertyOp15
 70
     1
102
RTVSPropertyOp16
 70
     1
102
RTVSPropertyOp17
 70
     1
102
RTVSPropertyOp18
 70
     1
102
RTVSPropertyOp19
 70
     1
102
RTVSPropertyOp20
 70
     1
102
RTVSPropertyOp21
 70
     1
102
RTVSPropertyOp22
 70
     1
102
RTVSPropertyOp23
 70
     1
102
RTVSPropertyOp24
 70
     1
102
RTVSPropertyOp25
 70
     1
102
RTVSPropertyOp26
 70
     1
102
RTVSPropertyOp27
 70
     1
102
RTVSPropertyOp28
 70
     1
102
RTVSPropertyOp29
 70
     1
102
RTVSPropertyOp30
 70
     1
102
RTVSPropertyOp31
 70
     1
102
RTVSPropertyOp32
 70
     1
102
RTVSPropertyOp33
 70
     1
102
RTVSPropertyOp34
 70
     1
102
RTVSPropertyOp35
 70
     1
102
RTVSPropertyOp36
 70
     1
102
RTVSPropertyOp37
 70
     1
102
RTVSPropertyOp38
 70
     1
102
RTVSPropertyOp39
 70
     1
102
RTVSPropertyOp40
 70
     1
102
RTVSPropertyOp41
 70
     1
102
RTVSPropertyOp42
 70
     1
102
RTVSPropertyOp43
 70
     1
102
RTVSPropertyOp44
 70
     1
102
RTVSPropertyOp45
 70
     1
102
RTVSPropertyOp46
 70
     1
102
RTVSPropertyOp47
 70
     1
102
RTVSPropertyOp48
 70
     1
102
RTVSPropertyOp49
 70
     1
102
RTVSPropertyOp50
 70
     1
102
RTVSPropertyOp51
 70
     0
102
RTVSPropertyOp52
 70
     0
102
RTVSPropertyOp53
 70
     1
102
RTVSPropertyOp54
 70
     1
102
RTVSPropertyOp55
 70
     1
102
RTVSPropertyOp56
 70
     1
102
RTVSPropertyOp57
 70
     1
102
RTVSPropertyOp58
 70
     1
102
RTVSPropertyOp59
 70
     1
102
RTVSPropertyOp60
 70
     1
102
RTVSPropertyOp61
 70
     1
102
RTVSPropertyOp62
 70
     1
  0
XRECORD
  5
160
102
{ACAD_REACTORS
330
15F
102
}
330
15F
100
AcDbXrecord
280
     1
102
RTVSPost2010Prop28
280
     0
102
RTVSPost2010PropOp28
 70
     1
102
RTVSPost2010Prop29
280
     1
102
RTVSPost2010PropOp29
 70
     1
102
RTVSPost2010Prop30
280
     1
102
RTVSPost2010PropOp30
 70
     1
102
RTVSPost2010Prop31
280
     0
102
RTVSPost2010PropOp31
 70
     1
102
RTVSPost2010Prop32
280
     0
102
RTVSPost2010PropOp32
 70
     1
102
RTVSPost2010Prop33
280
     0
102
RTVSPost2010PropOp33
 70
     1
102
RTVSPost2010Prop34
280
     0
102
RTVSPost2010PropOp34
 70
     1
102
RTVSPost2010Prop35
280
     0
102
RTVSPost2010PropOp35
 70
     1
102
RTVSPost2010Prop36
280
     0
102
RTVSPost2010PropOp36
 70
     1
102
RTVSPost2010Prop37
 90
       50
102
RTVSPost2010PropOp37
 70
     1
102
RTVSPost2010Prop38
140
0.0
102
RTVSPost2010PropOp38
 70
     1
102
RTVSPost2010Prop39
140
1.0
102
RTVSPost2010PropOp39
 70
     1
102
RTVSPost2010Prop40
 90
        0
102
RTVSPost2010PropOp40
 70
     1
102
RTVSPost2010Prop41ColorIndex
 90
       18
102
RTVSPost2010Prop41ColorRGB
 90
        0
102
RTVSPost2010PropOp41
 70
     1
102
RTVSPost2010Prop42
 90
       50
102
RTVSPost2010PropOp42
 70
     1
102
RTVSPost2010Prop43
 90
        3
102
RTVSPost2010PropOp43
 70
     1
102
RTVSPost2010Prop44ColorIndex
 90
        5
102
RTVSPost2010Prop44ColorRGB
 90
      255
102
RTVSPost2010PropOp44
 70
     1
102
RTVSPost2010Prop45
280
     0
102
RTVSPost2010PropOp45
 70
     1
102
RTVSPost2010Prop46
 90
       50
102
RTVSPost2010PropOp46
 70
     1
102
RTVSPost2010Prop47
 90
       50
102
RTVSPost2010PropOp47
 70
     1
102
RTVSPost2010Prop48
 90
       50
102
RTVSPost2010PropOp48
 70
     1
102
RTVSPost2010Prop49
280
     0
102
RTVSPost2010PropOp49
 70
     1
102
RTVSPost2010Prop50
 90
       50
102
RTVSPost2010PropOp50
 70
     1
102
RTVSPost2010Prop51ColorIndex
 90
      256
102
RTVSPost2010Prop51ColorRGB
 90
-16777216
102
RTVSPost2010PropOp51
 70
     0
102
RTVSPost2010Prop52
140
1.0
102
RTVSPost2010PropOp52
 70
     0
102
RTVSPost2010Prop53
 90
        2
102
RTVSPost2010PropOp53
 70
     1
102
RTVSPost2010Prop54
  1
strokes_ogs.tif
102
RTVSPost2010PropOp54
 70
     1
102
RTVSPost2010Prop55
280
     0
102
RTVSPost2010PropOp55
 70
     1
102
RTVSPost2010Prop56
140
1.0
102
RTVSPost2010PropOp56
 70
     1
102
RTVSPost2010Prop57
140
1.0
102
RTVSPost2010PropOp57
 70
     1
102
RTVSPropertyOp0
 70
     1
102
RTVSPropertyOp1
 70
     1
102
RTVSPropertyOp2
 70
     1
102
RTVSPropertyOp3
 70
     1
102
RTVSPropertyOp4
 70
     1
102
RTVSPropertyOp5
 70
     1
102
RTVSPropertyOp6
 70
     1
102
RTVSPropertyOp7
 70
     1
102
RTVSPropertyOp8
 70
     1
102
RTVSPropertyOp9
 70
     1
102
RTVSPropertyOp10
 70
     1
102
RTVSPropertyOp11
 70
     1
102
RTVSPropertyOp12
 70
     1
102
RTVSPropertyOp13
 70
     1
102
RTVSPropertyOp14
 70
     1
102
RTVSPropertyOp15
 70
     1
102
RTVSPropertyOp16
 70
     1
102
RTVSPropertyOp17
 70
     1
102
RTVSPropertyOp18
 70
     1
102
RTVSPropertyOp19
 70
     1
102
RTVSPropertyOp20
 70
     1
102
RTVSPropertyOp21
 70
     1
102
RTVSPropertyOp22
 70
     1
102
RTVSPropertyOp23
 70
     1
102
RTVSPropertyOp24
 70
     1
102
RTVSPropertyOp25
 70
     1
102
RTVSPropertyOp26
 70
     1
102
RTVSPropertyOp27
 70
     1
102
RTVSPropertyOp28
 70
     1
102
RTVSPropertyOp29
 70
     1
102
RTVSPropertyOp30
 70
     1
102
RTVSPropertyOp31
 70
     1
102
RTVSPropertyOp32
 70
     1
102
RTVSPropertyOp33
 70
     1
102
RTVSPropertyOp34
 70
     1
102
RTVSPropertyOp35
 70
     1
102
RTVSPropertyOp36
 70
     1
102
RTVSPropertyOp37
 70
     1
102
RTVSPropertyOp38
 70
     1
102
RTVSPropertyOp39
 70
     1
102
RTVSPropertyOp40
 70
     1
102
RTVSPropertyOp41
 70
     1
102
RTVSPropertyOp42
 70
     1
102
RTVSPropertyOp43
 70
     1
102
RTVSPropertyOp44
 70
     1
102
RTVSPropertyOp45
 70
     1
102
RTVSPropertyOp46
 70
     1
102
RTVSPropertyOp47
 70
     1
102
RTVSPropertyOp48
 70
     1
102
RTVSPropertyOp49
 70
     1
102
RTVSPropertyOp50
 70
     1
102
RTVSPropertyOp51
 70
     0
102
RTVSPropertyOp52
 70
     0
102
RTVSPropertyOp53
 70
     1
102
RTVSPropertyOp54
 70
     1
102
RTVSPropertyOp55
 70
     1
102
RTVSPropertyOp56
 70
     1
102
RTVSPropertyOp57
 70
     1
102
RTVSPropertyOp58
 70
     1
102
RTVSPropertyOp59
 70
     1
102
RTVSPropertyOp60
 70
     1
102
RTVSPropertyOp61
 70
     1
102
RTVSPropertyOp62
 70
     1
  0
XRECORD
  5
162
102
{ACAD_REACTORS
330
161
102
}
330
161
100
AcDbXrecord
280
     1
102
RTVSPost2010Prop28
280
     0
102
RTVSPost2010PropOp28
 70
     1
102
RTVSPost2010Prop29
280
     1
102
RTVSPost2010PropOp29
 70
     1
102
RTVSPost2010Prop30
280
     1
102
RTVSPost2010PropOp30
 70
     1
102
RTVSPost2010Prop31
280
     0
102
RTVSPost2010PropOp31
 70
     1
102
RTVSPost2010Prop32
280
     0
102
RTVSPost2010PropOp32
 70
     1
102
RTVSPost2010Prop33
280
     0
102
RTVSPost2010PropOp33
 70
     1
102
RTVSPost2010Prop34
280
     0
102
RTVSPost2010PropOp34
 70
     1
102
RTVSPost2010Prop35
280
     0
102
RTVSPost2010PropOp35
 70
     1
102
RTVSPost2010Prop36
280
     0
102
RTVSPost2010PropOp36
 70
     1
102
RTVSPost2010Prop37
 90
       50
102
RTVSPost2010PropOp37
 70
     1
102
RTVSPost2010Prop38
140
0.0
102
RTVSPost2010PropOp38
 70
     1
102
RTVSPost2010Prop39
140
1.0
102
RTVSPost2010PropOp39
 70
     1
102
RTVSPost2010Prop40
 90
        0
102
RTVSPost2010PropOp40
 70
     1
102
RTVSPost2010Prop41ColorIndex
 90
       18
102
RTVSPost2010Prop41ColorRGB
 90
        0
102
RTVSPost2010PropOp41
 70
     1
102
RTVSPost2010Prop42
 90
       50
102
RTVSPost2010PropOp42
 70
     1
102
RTVSPost2010Prop43
 90
        3
102
RTVSPost2010PropOp43
 70
     1
102
RTVSPost2010Prop44ColorIndex
 90
        5
102
RTVSPost2010Prop44ColorRGB
 90
      255
102
RTVSPost2010PropOp44
 70
     1
102
RTVSPost2010Prop45
280
     0
102
RTVSPost2010PropOp45
 70
     1
102
RTVSPost2010Prop46
 90
       50
102
RTVSPost2010PropOp46
 70
     1
102
RTVSPost2010Prop47
 90
       50
102
RTVSPost2010PropOp47
 70
     1
102
RTVSPost2010Prop48
 90
       50
102
RTVSPost2010PropOp48
 70
     1
102
RTVSPost2010Prop49
280
     0
102
RTVSPost2010PropOp49
 70
     1
102
RTVSPost2010Prop50
 90
       50
102
RTVSPost2010PropOp50
 70
     1
102
RTVSPost2010Prop51ColorIndex
 90
      256
102
RTVSPost2010Prop51ColorRGB
 90
-16777216
102
RTVSPost2010PropOp51
 70
     0
102
RTVSPost2010Prop52
140
1.0
102
RTVSPost2010PropOp52
 70
     0
102
RTVSPost2010Prop53
 90
        2
102
RTVSPost2010PropOp53
 70
     1
102
RTVSPost2010Prop54
  1
strokes_ogs.tif
102
RTVSPost2010PropOp54
 70
     1
102
RTVSPost2010Prop55
280
     0
102
RTVSPost2010PropOp55
 70
     1
102
RTVSPost2010Prop56
140
1.0
102
RTVSPost2010PropOp56
 70
     1
102
RTVSPost2010Prop57
140
1.0
102
RTVSPost2010PropOp57
 70
     1
102
RTVSPropertyOp0
 70
     1
102
RTVSPropertyOp1
 70
     1
102
RTVSPropertyOp2
 70
     1
102
RTVSPropertyOp3
 70
     1
102
RTVSPropertyOp4
 70
     1
102
RTVSPropertyOp5
 70
     1
102
RTVSPropertyOp6
 70
     1
102
RTVSPropertyOp7
 70
     1
102
RTVSPropertyOp8
 70
     1
102
RTVSPropertyOp9
 70
     1
102
RTVSPropertyOp10
 70
     1
102
RTVSPropertyOp11
 70
     1
102
RTVSPropertyOp12
 70
     1
102
RTVSPropertyOp13
 70
     1
102
RTVSPropertyOp14
 70
     1
102
RTVSPropertyOp15
 70
     1
102
RTVSPropertyOp16
 70
     1
102
RTVSPropertyOp17
 70
     1
102
RTVSPropertyOp18
 70
     1
102
RTVSPropertyOp19
 70
     1
102
RTVSPropertyOp20
 70
     1
102
RTVSPropertyOp21
 70
     1
102
RTVSPropertyOp22
 70
     1
102
RTVSPropertyOp23
 70
     1
102
RTVSPropertyOp24
 70
     1
102
RTVSPropertyOp25
 70
     1
102
RTVSPropertyOp26
 70
     1
102
RTVSPropertyOp27
 70
     1
102
RTVSPropertyOp28
 70
     1
102
RTVSPropertyOp29
 70
     1
102
RTVSPropertyOp30
 70
     1
102
RTVSPropertyOp31
 70
     1
102
RTVSPropertyOp32
 70
     1
102
RTVSPropertyOp33
 70
     1
102
RTVSPropertyOp34
 70
     1
102
RTVSPropertyOp35
 70
     1
102
RTVSPropertyOp36
 70
     1
102
RTVSPropertyOp37
 70
     1
102
RTVSPropertyOp38
 70
     1
102
RTVSPropertyOp39
 70
     1
102
RTVSPropertyOp40
 70
     1
102
RTVSPropertyOp41
 70
     1
102
RTVSPropertyOp42
 70
     1
102
RTVSPropertyOp43
 70
     1
102
RTVSPropertyOp44
 70
     1
102
RTVSPropertyOp45
 70
     1
102
RTVSPropertyOp46
 70
     1
102
RTVSPropertyOp47
 70
     1
102
RTVSPropertyOp48
 70
     1
102
RTVSPropertyOp49
 70
     1
102
RTVSPropertyOp50
 70
     1
102
RTVSPropertyOp51
 70
     0
102
RTVSPropertyOp52
 70
     0
102
RTVSPropertyOp53
 70
     1
102
RTVSPropertyOp54
 70
     1
102
RTVSPropertyOp55
 70
     1
102
RTVSPropertyOp56
 70
     1
102
RTVSPropertyOp57
 70
     1
102
RTVSPropertyOp58
 70
     1
102
RTVSPropertyOp59
 70
     1
102
RTVSPropertyOp60
 70
     1
102
RTVSPropertyOp61
 70
     1
102
RTVSPropertyOp62
 70
     1
  0
XRECORD
  5
164
102
{ACAD_REACTORS
330
163
102
}
330
163
100
AcDbXrecord
280
     1
102
RTVSPost2010Prop28
280
     0
102
RTVSPost2010PropOp28
 70
     1
102
RTVSPost2010Prop29
280
     1
102
RTVSPost2010PropOp29
 70
     1
102
RTVSPost2010Prop30
280
     1
102
RTVSPost2010PropOp30
 70
     1
102
RTVSPost2010Prop31
280
     0
102
RTVSPost2010PropOp31
 70
     1
102
RTVSPost2010Prop32
280
     0
102
RTVSPost2010PropOp32
 70
     1
102
RTVSPost2010Prop33
280
     0
102
RTVSPost2010PropOp33
 70
     1
102
RTVSPost2010Prop34
280
     0
102
RTVSPost2010PropOp34
 70
     1
102
RTVSPost2010Prop35
280
     0
102
RTVSPost2010PropOp35
 70
     1
102
RTVSPost2010Prop36
280
     0
102
RTVSPost2010PropOp36
 70
     1
102
RTVSPost2010Prop37
 90
       50
102
RTVSPost2010PropOp37
 70
     1
102
RTVSPost2010Prop38
140
0.0
102
RTVSPost2010PropOp38
 70
     1
102
RTVSPost2010Prop39
140
1.0
102
RTVSPost2010PropOp39
 70
     1
102
RTVSPost2010Prop40
 90
        0
102
RTVSPost2010PropOp40
 70
     1
102
RTVSPost2010Prop41ColorIndex
 90
       18
102
RTVSPost2010Prop41ColorRGB
 90
        0
102
RTVSPost2010PropOp41
 70
     1
102
RTVSPost2010Prop42
 90
       50
102
RTVSPost2010PropOp42
 70
     1
102
RTVSPost2010Prop43
 90
        3
102
RTVSPost2010PropOp43
 70
     1
102
RTVSPost2010Prop44ColorIndex
 90
        5
102
RTVSPost2010Prop44ColorRGB
 90
      255
102
RTVSPost2010PropOp44
 70
     1
102
RTVSPost2010Prop45
280
     0
102
RTVSPost2010PropOp45
 70
     1
102
RTVSPost2010Prop46
 90
       50
102
RTVSPost2010PropOp46
 70
     1
102
RTVSPost2010Prop47
 90
       50
102
RTVSPost2010PropOp47
 70
     1
102
RTVSPost2010Prop48
 90
       50
102
RTVSPost2010PropOp48
 70
     1
102
RTVSPost2010Prop49
280
     0
102
RTVSPost2010PropOp49
 70
     1
102
RTVSPost2010Prop50
 90
       50
102
RTVSPost2010PropOp50
 70
     1
102
RTVSPost2010Prop51ColorIndex
 90
      256
102
RTVSPost2010Prop51ColorRGB
 90
-16777216
102
RTVSPost2010PropOp51
 70
     0
102
RTVSPost2010Prop52
140
1.0
102
RTVSPost2010PropOp52
 70
     0
102
RTVSPost2010Prop53
 90
        2
102
RTVSPost2010PropOp53
 70
     1
102
RTVSPost2010Prop54
  1
strokes_ogs.tif
102
RTVSPost2010PropOp54
 70
     1
102
RTVSPost2010Prop55
280
     0
102
RTVSPost2010PropOp55
 70
     1
102
RTVSPost2010Prop56
140
1.0
102
RTVSPost2010PropOp56
 70
     1
102
RTVSPost2010Prop57
140
1.0
102
RTVSPost2010PropOp57
 70
     1
102
RTVSPropertyOp0
 70
     1
102
RTVSPropertyOp1
 70
     1
102
RTVSPropertyOp2
 70
     1
102
RTVSPropertyOp3
 70
     1
102
RTVSPropertyOp4
 70
     1
102
RTVSPropertyOp5
 70
     1
102
RTVSPropertyOp6
 70
     1
102
RTVSPropertyOp7
 70
     1
102
RTVSPropertyOp8
 70
     1
102
RTVSPropertyOp9
 70
     1
102
RTVSPropertyOp10
 70
     1
102
RTVSPropertyOp11
 70
     1
102
RTVSPropertyOp12
 70
     1
102
RTVSPropertyOp13
 70
     1
102
RTVSPropertyOp14
 70
     1
102
RTVSPropertyOp15
 70
     1
102
RTVSPropertyOp16
 70
     1
102
RTVSPropertyOp17
 70
     1
102
RTVSPropertyOp18
 70
     1
102
RTVSPropertyOp19
 70
     1
102
RTVSPropertyOp20
 70
     1
102
RTVSPropertyOp21
 70
     1
102
RTVSPropertyOp22
 70
     1
102
RTVSPropertyOp23
 70
     1
102
RTVSPropertyOp24
 70
     1
102
RTVSPropertyOp25
 70
     1
102
RTVSPropertyOp26
 70
     1
102
RTVSPropertyOp27
 70
     1
102
RTVSPropertyOp28
 70
     1
102
RTVSPropertyOp29
 70
     1
102
RTVSPropertyOp30
 70
     1
102
RTVSPropertyOp31
 70
     1
102
RTVSPropertyOp32
 70
     1
102
RTVSPropertyOp33
 70
     1
102
RTVSPropertyOp34
 70
     1
102
RTVSPropertyOp35
 70
     1
102
RTVSPropertyOp36
 70
     1
102
RTVSPropertyOp37
 70
     1
102
RTVSPropertyOp38
 70
     1
102
RTVSPropertyOp39
 70
     1
102
RTVSPropertyOp40
 70
     1
102
RTVSPropertyOp41
 70
     1
102
RTVSPropertyOp42
 70
     1
102
RTVSPropertyOp43
 70
     1
102
RTVSPropertyOp44
 70
     1
102
RTVSPropertyOp45
 70
     1
102
RTVSPropertyOp46
 70
     1
102
RTVSPropertyOp47
 70
     1
102
RTVSPropertyOp48
 70
     1
102
RTVSPropertyOp49
 70
     1
102
RTVSPropertyOp50
 70
     1
102
RTVSPropertyOp51
 70
     0
102
RTVSPropertyOp52
 70
     0
102
RTVSPropertyOp53
 70
     1
102
RTVSPropertyOp54
 70
     1
102
RTVSPropertyOp55
 70
     1
102
RTVSPropertyOp56
 70
     1
102
RTVSPropertyOp57
 70
     1
102
RTVSPropertyOp58
 70
     1
102
RTVSPropertyOp59
 70
     1
102
RTVSPropertyOp60
 70
     1
102
RTVSPropertyOp61
 70
     1
102
RTVSPropertyOp62
 70
     1
  0
XRECORD
  5
166
102
{ACAD_REACTORS
330
165
102
}
330
165
100
AcDbXrecord
280
     1
102
RTVSPost2010Prop28
280
     0
102
RTVSPost2010PropOp28
 70
     1
102
RTVSPost2010Prop29
280
     1
102
RTVSPost2010PropOp29
 70
     1
102
RTVSPost2010Prop30
280
     1
102
RTVSPost2010PropOp30
 70
     1
102
RTVSPost2010Prop31
280
     0
102
RTVSPost2010PropOp31
 70
     1
102
RTVSPost2010Prop32
280
     0
102
RTVSPost2010PropOp32
 70
     1
102
RTVSPost2010Prop33
280
     0
102
RTVSPost2010PropOp33
 70
     1
102
RTVSPost2010Prop34
280
     0
102
RTVSPost2010PropOp34
 70
     1
102
RTVSPost2010Prop35
280
     0
102
RTVSPost2010PropOp35
 70
     1
102
RTVSPost2010Prop36
280
     0
102
RTVSPost2010PropOp36
 70
     1
102
RTVSPost2010Prop37
 90
       50
102
RTVSPost2010PropOp37
 70
     1
102
RTVSPost2010Prop38
140
0.0
102
RTVSPost2010PropOp38
 70
     1
102
RTVSPost2010Prop39
140
1.0
102
RTVSPost2010PropOp39
 70
     1
102
RTVSPost2010Prop40
 90
        0
102
RTVSPost2010PropOp40
 70
     1
102
RTVSPost2010Prop41ColorIndex
 90
       18
102
RTVSPost2010Prop41ColorRGB
 90
        0
102
RTVSPost2010PropOp41
 70
     1
102
RTVSPost2010Prop42
 90
       50
102
RTVSPost2010PropOp42
 70
     1
102
RTVSPost2010Prop43
 90
        3
102
RTVSPost2010PropOp43
 70
     1
102
RTVSPost2010Prop44ColorIndex
 90
        5
102
RTVSPost2010Prop44ColorRGB
 90
      255
102
RTVSPost2010PropOp44
 70
     1
102
RTVSPost2010Prop45
280
     0
102
RTVSPost2010PropOp45
 70
     1
102
RTVSPost2010Prop46
 90
       50
102
RTVSPost2010PropOp46
 70
     1
102
RTVSPost2010Prop47
 90
       50
102
RTVSPost2010PropOp47
 70
     1
102
RTVSPost2010Prop48
 90
       50
102
RTVSPost2010PropOp48
 70
     1
102
RTVSPost2010Prop49
280
     0
102
RTVSPost2010PropOp49
 70
     1
102
RTVSPost2010Prop50
 90
       50
102
RTVSPost2010PropOp50
 70
     1
102
RTVSPost2010Prop51ColorIndex
 90
      256
102
RTVSPost2010Prop51ColorRGB
 90
-16777216
102
RTVSPost2010PropOp51
 70
     0
102
RTVSPost2010Prop52
140
1.0
102
RTVSPost2010PropOp52
 70
     0
102
RTVSPost2010Prop53
 90
        2
102
RTVSPost2010PropOp53
 70
     1
102
RTVSPost2010Prop54
  1
strokes_ogs.tif
102
RTVSPost2010PropOp54
 70
     1
102
RTVSPost2010Prop55
280
     0
102
RTVSPost2010PropOp55
 70
     1
102
RTVSPost2010Prop56
140
1.0
102
RTVSPost2010PropOp56
 70
     1
102
RTVSPost2010Prop57
140
1.0
102
RTVSPost2010PropOp57
 70
     1
102
RTVSPropertyOp0
 70
     1
102
RTVSPropertyOp1
 70
     1
102
RTVSPropertyOp2
 70
     1
102
RTVSPropertyOp3
 70
     1
102
RTVSPropertyOp4
 70
     1
102
RTVSPropertyOp5
 70
     1
102
RTVSPropertyOp6
 70
     1
102
RTVSPropertyOp7
 70
     1
102
RTVSPropertyOp8
 70
     1
102
RTVSPropertyOp9
 70
     1
102
RTVSPropertyOp10
 70
     1
102
RTVSPropertyOp11
 70
     1
102
RTVSPropertyOp12
 70
     1
102
RTVSPropertyOp13
 70
     1
102
RTVSPropertyOp14
 70
     1
102
RTVSPropertyOp15
 70
     1
102
RTVSPropertyOp16
 70
     1
102
RTVSPropertyOp17
 70
     1
102
RTVSPropertyOp18
 70
     1
102
RTVSPropertyOp19
 70
     1
102
RTVSPropertyOp20
 70
     1
102
RTVSPropertyOp21
 70
     1
102
RTVSPropertyOp22
 70
     1
102
RTVSPropertyOp23
 70
     1
102
RTVSPropertyOp24
 70
     1
102
RTVSPropertyOp25
 70
     1
102
RTVSPropertyOp26
 70
     1
102
RTVSPropertyOp27
 70
     1
102
RTVSPropertyOp28
 70
     1
102
RTVSPropertyOp29
 70
     1
102
RTVSPropertyOp30
 70
     1
102
RTVSPropertyOp31
 70
     1
102
RTVSPropertyOp32
 70
     1
102
RTVSPropertyOp33
 70
     1
102
RTVSPropertyOp34
 70
     1
102
RTVSPropertyOp35
 70
     1
102
RTVSPropertyOp36
 70
     1
102
RTVSPropertyOp37
 70
     1
102
RTVSPropertyOp38
 70
     1
102
RTVSPropertyOp39
 70
     1
102
RTVSPropertyOp40
 70
     1
102
RTVSPropertyOp41
 70
     1
102
RTVSPropertyOp42
 70
     1
102
RTVSPropertyOp43
 70
     1
102
RTVSPropertyOp44
 70
     1
102
RTVSPropertyOp45
 70
     1
102
RTVSPropertyOp46
 70
     1
102
RTVSPropertyOp47
 70
     1
102
RTVSPropertyOp48
 70
     1
102
RTVSPropertyOp49
 70
     1
102
RTVSPropertyOp50
 70
     1
102
RTVSPropertyOp51
 70
     0
102
RTVSPropertyOp52
 70
     0
102
RTVSPropertyOp53
 70
     1
102
RTVSPropertyOp54
 70
     1
102
RTVSPropertyOp55
 70
     1
102
RTVSPropertyOp56
 70
     1
102
RTVSPropertyOp57
 70
     1
102
RTVSPropertyOp58
 70
     1
102
RTVSPropertyOp59
 70
     1
102
RTVSPropertyOp60
 70
     1
102
RTVSPropertyOp61
 70
     1
102
RTVSPropertyOp62
 70
     1
  0
XRECORD
  5
16E
102
{ACAD_REACTORS
330
16D
102
}
330
16D
100
AcDbXrecord
280
     1
102
RTVSPost2010Prop28
280
     0
102
RTVSPost2010PropOp28
 70
     1
102
RTVSPost2010Prop29
280
     1
102
RTVSPost2010PropOp29
 70
     1
102
RTVSPost2010Prop30
280
     1
102
RTVSPost2010PropOp30
 70
     1
102
RTVSPost2010Prop31
280
     0
102
RTVSPost2010PropOp31
 70
     1
102
RTVSPost2010Prop32
280
     0
102
RTVSPost2010PropOp32
 70
     1
102
RTVSPost2010Prop33
280
     0
102
RTVSPost2010PropOp33
 70
     1
102
RTVSPost2010Prop34
280
     0
102
RTVSPost2010PropOp34
 70
     1
102
RTVSPost2010Prop35
280
     0
102
RTVSPost2010PropOp35
 70
     1
102
RTVSPost2010Prop36
280
     0
102
RTVSPost2010PropOp36
 70
     1
102
RTVSPost2010Prop37
 90
       50
102
RTVSPost2010PropOp37
 70
     1
102
RTVSPost2010Prop38
140
0.0
102
RTVSPost2010PropOp38
 70
     1
102
RTVSPost2010Prop39
140
1.0
102
RTVSPost2010PropOp39
 70
     1
102
RTVSPost2010Prop40
 90
        0
102
RTVSPost2010PropOp40
 70
     1
102
RTVSPost2010Prop41ColorIndex
 90
       18
102
RTVSPost2010Prop41ColorRGB
 90
        0
102
RTVSPost2010PropOp41
 70
     1
102
RTVSPost2010Prop42
 90
       50
102
RTVSPost2010PropOp42
 70
     1
102
RTVSPost2010Prop43
 90
        3
102
RTVSPost2010PropOp43
 70
     1
102
RTVSPost2010Prop44ColorIndex
 90
        5
102
RTVSPost2010Prop44ColorRGB
 90
      255
102
RTVSPost2010PropOp44
 70
     1
102
RTVSPost2010Prop45
280
     0
102
RTVSPost2010PropOp45
 70
     1
102
RTVSPost2010Prop46
 90
       50
102
RTVSPost2010PropOp46
 70
     1
102
RTVSPost2010Prop47
 90
       50
102
RTVSPost2010PropOp47
 70
     1
102
RTVSPost2010Prop48
 90
       50
102
RTVSPost2010PropOp48
 70
     1
102
RTVSPost2010Prop49
280
     0
102
RTVSPost2010PropOp49
 70
     1
102
RTVSPost2010Prop50
 90
       50
102
RTVSPost2010PropOp50
 70
     1
102
RTVSPost2010Prop51ColorIndex
 90
      256
102
RTVSPost2010Prop51ColorRGB
 90
-16777216
102
RTVSPost2010PropOp51
 70
     0
102
RTVSPost2010Prop52
140
1.0
102
RTVSPost2010PropOp52
 70
     0
102
RTVSPost2010Prop53
 90
        2
102
RTVSPost2010PropOp53
 70
     1
102
RTVSPost2010Prop54
  1
strokes_ogs.tif
102
RTVSPost2010PropOp54
 70
     1
102
RTVSPost2010Prop55
280
     0
102
RTVSPost2010PropOp55
 70
     1
102
RTVSPost2010Prop56
140
1.0
102
RTVSPost2010PropOp56
 70
     1
102
RTVSPost2010Prop57
140
1.0
102
RTVSPost2010PropOp57
 70
     1
102
RTVSPropertyOp0
 70
     1
102
RTVSPropertyOp1
 70
     1
102
RTVSPropertyOp2
 70
     1
102
RTVSPropertyOp3
 70
     1
102
RTVSPropertyOp4
 70
     1
102
RTVSPropertyOp5
 70
     1
102
RTVSPropertyOp6
 70
     1
102
RTVSPropertyOp7
 70
     1
102
RTVSPropertyOp8
 70
     1
102
RTVSPropertyOp9
 70
     1
102
RTVSPropertyOp10
 70
     1
102
RTVSPropertyOp11
 70
     1
102
RTVSPropertyOp12
 70
     1
102
RTVSPropertyOp13
 70
     1
102
RTVSPropertyOp14
 70
     1
102
RTVSPropertyOp15
 70
     1
102
RTVSPropertyOp16
 70
     1
102
RTVSPropertyOp17
 70
     1
102
RTVSPropertyOp18
 70
     1
102
RTVSPropertyOp19
 70
     1
102
RTVSPropertyOp20
 70
     1
102
RTVSPropertyOp21
 70
     1
102
RTVSPropertyOp22
 70
     1
102
RTVSPropertyOp23
 70
     1
102
RTVSPropertyOp24
 70
     1
102
RTVSPropertyOp25
 70
     1
102
RTVSPropertyOp26
 70
     1
102
RTVSPropertyOp27
 70
     1
102
RTVSPropertyOp28
 70
     1
102
RTVSPropertyOp29
 70
     1
102
RTVSPropertyOp30
 70
     1
102
RTVSPropertyOp31
 70
     1
102
RTVSPropertyOp32
 70
     1
102
RTVSPropertyOp33
 70
     1
102
RTVSPropertyOp34
 70
     1
102
RTVSPropertyOp35
 70
     1
102
RTVSPropertyOp36
 70
     1
102
RTVSPropertyOp37
 70
     1
102
RTVSPropertyOp38
 70
     1
102
RTVSPropertyOp39
 70
     1
102
RTVSPropertyOp40
 70
     1
102
RTVSPropertyOp41
 70
     1
102
RTVSPropertyOp42
 70
     1
102
RTVSPropertyOp43
 70
     1
102
RTVSPropertyOp44
 70
     1
102
RTVSPropertyOp45
 70
     1
102
RTVSPropertyOp46
 70
     1
102
RTVSPropertyOp47
 70
     1
102
RTVSPropertyOp48
 70
     1
102
RTVSPropertyOp49
 70
     1
102
RTVSPropertyOp50
 70
     1
102
RTVSPropertyOp51
 70
     0
102
RTVSPropertyOp52
 70
     0
102
RTVSPropertyOp53
 70
     1
102
RTVSPropertyOp54
 70
     1
102
RTVSPropertyOp55
 70
     1
102
RTVSPropertyOp56
 70
     1
102
RTVSPropertyOp57
 70
     1
102
RTVSPropertyOp58
 70
     1
102
RTVSPropertyOp59
 70
     1
102
RTVSPropertyOp60
 70
     1
102
RTVSPropertyOp61
 70
     1
102
RTVSPropertyOp62
 70
     1
  0
XRECORD
  5
18A
102
{ACAD_REACTORS
330
189
102
}
330
189
100
AcDbXrecord
280
     1
102
RTVSPost2010Prop28
280
     0
102
RTVSPost2010PropOp28
 70
     0
102
RTVSPost2010Prop29
280
     1
102
RTVSPost2010PropOp29
 70
     0
102
RTVSPost2010Prop30
280
     1
102
RTVSPost2010PropOp30
 70
     0
102
RTVSPost2010Prop31
280
     0
102
RTVSPost2010PropOp31
 70
     0
102
RTVSPost2010Prop32
280
     0
102
RTVSPost2010PropOp32
 70
     0
102
RTVSPost2010Prop33
280
     0
102
RTVSPost2010PropOp33
 70
     0
102
RTVSPost2010Prop34
280
     0
102
RTVSPost2010PropOp34
 70
     0
102
RTVSPost2010Prop35
280
     0
102
RTVSPost2010PropOp35
 70
     0
102
RTVSPost2010Prop36
280
     0
102
RTVSPost2010PropOp36
 70
     0
102
RTVSPost2010Prop37
 90
       50
102
RTVSPost2010PropOp37
 70
     0
102
RTVSPost2010Prop38
140
0.0
102
RTVSPost2010PropOp38
 70
     0
102
RTVSPost2010Prop39
140
1.0
102
RTVSPost2010PropOp39
 70
     0
102
RTVSPost2010Prop40
 90
        0
102
RTVSPost2010PropOp40
 70
     0
102
RTVSPost2010Prop41ColorIndex
 90
       18
102
RTVSPost2010Prop41ColorRGB
 90
        0
102
RTVSPost2010PropOp41
 70
     0
102
RTVSPost2010Prop42
 90
       50
102
RTVSPost2010PropOp42
 70
     0
102
RTVSPost2010Prop43
 90
        3
102
RTVSPost2010PropOp43
 70
     0
102
RTVSPost2010Prop44ColorIndex
 90
        5
102
RTVSPost2010Prop44ColorRGB
 90
      255
102
RTVSPost2010PropOp44
 70
     0
102
RTVSPost2010Prop45
280
     0
102
RTVSPost2010PropOp45
 70
     0
102
RTVSPost2010Prop46
 90
       50
102
RTVSPost2010PropOp46
 70
     0
102
RTVSPost2010Prop47
 90
       50
102
RTVSPost2010PropOp47
 70
     0
102
RTVSPost2010Prop48
 90
       50
102
RTVSPost2010PropOp48
 70
     0
102
RTVSPost2010Prop49
280
     0
102
RTVSPost2010PropOp49
 70
     0
102
RTVSPost2010Prop50
 90
       50
102
RTVSPost2010PropOp50
 70
     0
102
RTVSPost2010Prop51ColorIndex
 90
      256
102
RTVSPost2010Prop51ColorRGB
 90
-16777216
102
RTVSPost2010PropOp51
 70
     0
102
RTVSPost2010Prop52
140
1.0
102
RTVSPost2010PropOp52
 70
     0
102
RTVSPost2010Prop53
 90
        2
102
RTVSPost2010PropOp53
 70
     0
102
RTVSPost2010Prop54
  1
strokes_ogs.tif
102
RTVSPost2010PropOp54
 70
     0
102
RTVSPost2010Prop55
280
     0
102
RTVSPost2010PropOp55
 70
     0
102
RTVSPost2010Prop56
140
1.0
102
RTVSPost2010PropOp56
 70
     0
102
RTVSPost2010Prop57
140
1.0
102
RTVSPost2010PropOp57
 70
     0
102
RTVSPropertyOp0
 70
     0
102
RTVSPropertyOp1
 70
     0
102
RTVSPropertyOp2
 70
     0
102
RTVSPropertyOp3
 70
     0
102
RTVSPropertyOp4
 70
     0
102
RTVSPropertyOp5
 70
     0
102
RTVSPropertyOp6
 70
     0
102
RTVSPropertyOp7
 70
     0
102
RTVSPropertyOp8
 70
     0
102
RTVSPropertyOp9
 70
     0
102
RTVSPropertyOp10
 70
     0
102
RTVSPropertyOp11
 70
     0
102
RTVSPropertyOp12
 70
     0
102
RTVSPropertyOp13
 70
     0
102
RTVSPropertyOp14
 70
     2
102
RTVSPropertyOp15
 70
     0
102
RTVSPropertyOp16
 70
     0
102
RTVSPropertyOp17
 70
     0
102
RTVSPropertyOp18
 70
     0
102
RTVSPropertyOp19
 70
     0
102
RTVSPropertyOp20
 70
     0
102
RTVSPropertyOp21
 70
     0
102
RTVSPropertyOp22
 70
     0
102
RTVSPropertyOp23
 70
     0
102
RTVSPropertyOp24
 70
     0
102
RTVSPropertyOp25
 70
     0
102
RTVSPropertyOp26
 70
     0
102
RTVSPropertyOp27
 70
     0
102
RTVSPropertyOp28
 70
     0
102
RTVSPropertyOp29
 70
     0
102
RTVSPropertyOp30
 70
     0
102
RTVSPropertyOp31
 70
     0
102
RTVSPropertyOp32
 70
     0
102
RTVSPropertyOp33
 70
     0
102
RTVSPropertyOp34
 70
     0
102
RTVSPropertyOp35
 70
     0
102
RTVSPropertyOp36
 70
     0
102
RTVSPropertyOp37
 70
     0
102
RTVSPropertyOp38
 70
     0
102
RTVSPropertyOp39
 70
     0
102
RTVSPropertyOp40
 70
     0
102
RTVSPropertyOp41
 70
     0
102
RTVSPropertyOp42
 70
     0
102
RTVSPropertyOp43
 70
     0
102
RTVSPropertyOp44
 70
     0
102
RTVSPropertyOp45
 70
     0
102
RTVSPropertyOp46
 70
     0
102
RTVSPropertyOp47
 70
     0
102
RTVSPropertyOp48
 70
     0
102
RTVSPropertyOp49
 70
     0
102
RTVSPropertyOp50
 70
     0
102
RTVSPropertyOp51
 70
     0
102
RTVSPropertyOp52
 70
     0
102
RTVSPropertyOp53
 70
     0
102
RTVSPropertyOp54
 70
     0
102
RTVSPropertyOp55
 70
     0
102
RTVSPropertyOp56
 70
     0
102
RTVSPropertyOp57
 70
     0
102
RTVSPropertyOp58
 70
     0
102
RTVSPropertyOp59
 70
     0
102
RTVSPropertyOp60
 70
     0
102
RTVSPropertyOp61
 70
     0
102
RTVSPropertyOp62
 70
     0
  0
XRECORD
  5
17A
102
{ACAD_REACTORS
330
179
102
}
330
179
100
AcDbXrecord
280
     1
102
RTVSPost2010Prop28
280
     0
102
RTVSPost2010PropOp28
 70
     1
102
RTVSPost2010Prop29
280
     1
102
RTVSPost2010PropOp29
 70
     1
102
RTVSPost2010Prop30
280
     1
102
RTVSPost2010PropOp30
 70
     1
102
RTVSPost2010Prop31
280
     0
102
RTVSPost2010PropOp31
 70
     1
102
RTVSPost2010Prop32
280
     0
102
RTVSPost2010PropOp32
 70
     1
102
RTVSPost2010Prop33
280
     0
102
RTVSPost2010PropOp33
 70
     1
102
RTVSPost2010Prop34
280
     0
102
RTVSPost2010PropOp34
 70
     1
102
RTVSPost2010Prop35
280
     0
102
RTVSPost2010PropOp35
 70
     1
102
RTVSPost2010Prop36
280
     0
102
RTVSPost2010PropOp36
 70
     1
102
RTVSPost2010Prop37
 90
       50
102
RTVSPost2010PropOp37
 70
     1
102
RTVSPost2010Prop38
140
0.0
102
RTVSPost2010PropOp38
 70
     1
102
RTVSPost2010Prop39
140
1.0
102
RTVSPost2010PropOp39
 70
     1
102
RTVSPost2010Prop40
 90
        0
102
RTVSPost2010PropOp40
 70
     1
102
RTVSPost2010Prop41ColorIndex
 90
       18
102
RTVSPost2010Prop41ColorRGB
 90
        0
102
RTVSPost2010PropOp41
 70
     1
102
RTVSPost2010Prop42
 90
       50
102
RTVSPost2010PropOp42
 70
     1
102
RTVSPost2010Prop43
 90
        3
102
RTVSPost2010PropOp43
 70
     1
102
RTVSPost2010Prop44ColorIndex
 90
        5
102
RTVSPost2010Prop44ColorRGB
 90
      255
102
RTVSPost2010PropOp44
 70
     1
102
RTVSPost2010Prop45
280
     0
102
RTVSPost2010PropOp45
 70
     1
102
RTVSPost2010Prop46
 90
       50
102
RTVSPost2010PropOp46
 70
     1
102
RTVSPost2010Prop47
 90
       50
102
RTVSPost2010PropOp47
 70
     1
102
RTVSPost2010Prop48
 90
       50
102
RTVSPost2010PropOp48
 70
     1
102
RTVSPost2010Prop49
280
     0
102
RTVSPost2010PropOp49
 70
     1
102
RTVSPost2010Prop50
 90
       50
102
RTVSPost2010PropOp50
 70
     1
102
RTVSPost2010Prop51ColorIndex
 90
      256
102
RTVSPost2010Prop51ColorRGB
 90
-16777216
102
RTVSPost2010PropOp51
 70
     0
102
RTVSPost2010Prop52
140
1.0
102
RTVSPost2010PropOp52
 70
     0
102
RTVSPost2010Prop53
 90
        2
102
RTVSPost2010PropOp53
 70
     1
102
RTVSPost2010Prop54
  1
strokes_ogs.tif
102
RTVSPost2010PropOp54
 70
     1
102
RTVSPost2010Prop55
280
     0
102
RTVSPost2010PropOp55
 70
     1
102
RTVSPost2010Prop56
140
1.0
102
RTVSPost2010PropOp56
 70
     1
102
RTVSPost2010Prop57
140
1.0
102
RTVSPost2010PropOp57
 70
     1
102
RTVSPropertyOp0
 70
     1
102
RTVSPropertyOp1
 70
     1
102
RTVSPropertyOp2
 70
     1
102
RTVSPropertyOp3
 70
     1
102
RTVSPropertyOp4
 70
     1
102
RTVSPropertyOp5
 70
     1
102
RTVSPropertyOp6
 70
     1
102
RTVSPropertyOp7
 70
     1
102
RTVSPropertyOp8
 70
     1
102
RTVSPropertyOp9
 70
     1
102
RTVSPropertyOp10
 70
     1
102
RTVSPropertyOp11
 70
     1
102
RTVSPropertyOp12
 70
     1
102
RTVSPropertyOp13
 70
     1
102
RTVSPropertyOp14
 70
     1
102
RTVSPropertyOp15
 70
     1
102
RTVSPropertyOp16
 70
     1
102
RTVSPropertyOp17
 70
     1
102
RTVSPropertyOp18
 70
     1
102
RTVSPropertyOp19
 70
     1
102
RTVSPropertyOp20
 70
     1
102
RTVSPropertyOp21
 70
     1
102
RTVSPropertyOp22
 70
     1
102
RTVSPropertyOp23
 70
     1
102
RTVSPropertyOp24
 70
     1
102
RTVSPropertyOp25
 70
     1
102
RTVSPropertyOp26
 70
     1
102
RTVSPropertyOp27
 70
     1
102
RTVSPropertyOp28
 70
     1
102
RTVSPropertyOp29
 70
     1
102
RTVSPropertyOp30
 70
     1
102
RTVSPropertyOp31
 70
     1
102
RTVSPropertyOp32
 70
     1
102
RTVSPropertyOp33
 70
     1
102
RTVSPropertyOp34
 70
     1
102
RTVSPropertyOp35
 70
     1
102
RTVSPropertyOp36
 70
     1
102
RTVSPropertyOp37
 70
     1
102
RTVSPropertyOp38
 70
     1
102
RTVSPropertyOp39
 70
     1
102
RTVSPropertyOp40
 70
     1
102
RTVSPropertyOp41
 70
     1
102
RTVSPropertyOp42
 70
     1
102
RTVSPropertyOp43
 70
     1
102
RTVSPropertyOp44
 70
     1
102
RTVSPropertyOp45
 70
     1
102
RTVSPropertyOp46
 70
     1
102
RTVSPropertyOp47
 70
     1
102
RTVSPropertyOp48
 70
     1
102
RTVSPropertyOp49
 70
     1
102
RTVSPropertyOp50
 70
     1
102
RTVSPropertyOp51
 70
     0
102
RTVSPropertyOp52
 70
     0
102
RTVSPropertyOp53
 70
     1
102
RTVSPropertyOp54
 70
     1
102
RTVSPropertyOp55
 70
     1
102
RTVSPropertyOp56
 70
     1
102
RTVSPropertyOp57
 70
     1
102
RTVSPropertyOp58
 70
     1
102
RTVSPropertyOp59
 70
     1
102
RTVSPropertyOp60
 70
     1
102
RTVSPropertyOp61
 70
     1
102
RTVSPropertyOp62
 70
     1
  0
XRECORD
  5
18C
102
{ACAD_REACTORS
330
18B
102
}
330
18B
100
AcDbXrecord
280
     1
102
RTVSPost2010Prop28
280
     0
102
RTVSPost2010PropOp28
 70
     0
102
RTVSPost2010Prop29
280
     1
102
RTVSPost2010PropOp29
 70
     0
102
RTVSPost2010Prop30
280
     1
102
RTVSPost2010PropOp30
 70
     0
102
RTVSPost2010Prop31
280
     0
102
RTVSPost2010PropOp31
 70
     0
102
RTVSPost2010Prop32
280
     0
102
RTVSPost2010PropOp32
 70
     0
102
RTVSPost2010Prop33
280
     0
102
RTVSPost2010PropOp33
 70
     0
102
RTVSPost2010Prop34
280
     0
102
RTVSPost2010PropOp34
 70
     0
102
RTVSPost2010Prop35
280
     0
102
RTVSPost2010PropOp35
 70
     0
102
RTVSPost2010Prop36
280
     0
102
RTVSPost2010PropOp36
 70
     0
102
RTVSPost2010Prop37
 90
       50
102
RTVSPost2010PropOp37
 70
     0
102
RTVSPost2010Prop38
140
0.0
102
RTVSPost2010PropOp38
 70
     0
102
RTVSPost2010Prop39
140
1.0
102
RTVSPost2010PropOp39
 70
     0
102
RTVSPost2010Prop40
 90
        0
102
RTVSPost2010PropOp40
 70
     0
102
RTVSPost2010Prop41ColorIndex
 90
       18
102
RTVSPost2010Prop41ColorRGB
 90
        0
102
RTVSPost2010PropOp41
 70
     0
102
RTVSPost2010Prop42
 90
       50
102
RTVSPost2010PropOp42
 70
     0
102
RTVSPost2010Prop43
 90
        3
102
RTVSPost2010PropOp43
 70
     0
102
RTVSPost2010Prop44ColorIndex
 90
        5
102
RTVSPost2010Prop44ColorRGB
 90
      255
102
RTVSPost2010PropOp44
 70
     0
102
RTVSPost2010Prop45
280
     0
102
RTVSPost2010PropOp45
 70
     0
102
RTVSPost2010Prop46
 90
       50
102
RTVSPost2010PropOp46
 70
     0
102
RTVSPost2010Prop47
 90
       50
102
RTVSPost2010PropOp47
 70
     0
102
RTVSPost2010Prop48
 90
       50
102
RTVSPost2010PropOp48
 70
     0
102
RTVSPost2010Prop49
280
     0
102
RTVSPost2010PropOp49
 70
     0
102
RTVSPost2010Prop50
 90
       50
102
RTVSPost2010PropOp50
 70
     0
102
RTVSPost2010Prop51ColorIndex
 90
      256
102
RTVSPost2010Prop51ColorRGB
 90
-16777216
102
RTVSPost2010PropOp51
 70
     0
102
RTVSPost2010Prop52
140
1.0
102
RTVSPost2010PropOp52
 70
     0
102
RTVSPost2010Prop53
 90
        2
102
RTVSPost2010PropOp53
 70
     0
102
RTVSPost2010Prop54
  1
strokes_ogs.tif
102
RTVSPost2010PropOp54
 70
     0
102
RTVSPost2010Prop55
280
     0
102
RTVSPost2010PropOp55
 70
     0
102
RTVSPost2010Prop56
140
1.0
102
RTVSPost2010PropOp56
 70
     0
102
RTVSPost2010Prop57
140
1.0
102
RTVSPost2010PropOp57
 70
     0
102
RTVSPropertyOp0
 70
     0
102
RTVSPropertyOp1
 70
     0
102
RTVSPropertyOp2
 70
     0
102
RTVSPropertyOp3
 70
     0
102
RTVSPropertyOp4
 70
     0
102
RTVSPropertyOp5
 70
     0
102
RTVSPropertyOp6
 70
     0
102
RTVSPropertyOp7
 70
     0
102
RTVSPropertyOp8
 70
     0
102
RTVSPropertyOp9
 70
     0
102
RTVSPropertyOp10
 70
     0
102
RTVSPropertyOp11
 70
     0
102
RTVSPropertyOp12
 70
     0
102
RTVSPropertyOp13
 70
     0
102
RTVSPropertyOp14
 70
     2
102
RTVSPropertyOp15
 70
     0
102
RTVSPropertyOp16
 70
     0
102
RTVSPropertyOp17
 70
     0
102
RTVSPropertyOp18
 70
     0
102
RTVSPropertyOp19
 70
     0
102
RTVSPropertyOp20
 70
     0
102
RTVSPropertyOp21
 70
     0
102
RTVSPropertyOp22
 70
     0
102
RTVSPropertyOp23
 70
     0
102
RTVSPropertyOp24
 70
     0
102
RTVSPropertyOp25
 70
     0
102
RTVSPropertyOp26
 70
     0
102
RTVSPropertyOp27
 70
     0
102
RTVSPropertyOp28
 70
     0
102
RTVSPropertyOp29
 70
     0
102
RTVSPropertyOp30
 70
     0
102
RTVSPropertyOp31
 70
     0
102
RTVSPropertyOp32
 70
     0
102
RTVSPropertyOp33
 70
     0
102
RTVSPropertyOp34
 70
     0
102
RTVSPropertyOp35
 70
     0
102
RTVSPropertyOp36
 70
     0
102
RTVSPropertyOp37
 70
     0
102
RTVSPropertyOp38
 70
     0
102
RTVSPropertyOp39
 70
     0
102
RTVSPropertyOp40
 70
     0
102
RTVSPropertyOp41
 70
     0
102
RTVSPropertyOp42
 70
     0
102
RTVSPropertyOp43
 70
     0
102
RTVSPropertyOp44
 70
     0
102
RTVSPropertyOp45
 70
     0
102
RTVSPropertyOp46
 70
     0
102
RTVSPropertyOp47
 70
     0
102
RTVSPropertyOp48
 70
     0
102
RTVSPropertyOp49
 70
     0
102
RTVSPropertyOp50
 70
     0
102
RTVSPropertyOp51
 70
     0
102
RTVSPropertyOp52
 70
     0
102
RTVSPropertyOp53
 70
     0
102
RTVSPropertyOp54
 70
     0
102
RTVSPropertyOp55
 70
     0
102
RTVSPropertyOp56
 70
     0
102
RTVSPropertyOp57
 70
     0
102
RTVSPropertyOp58
 70
     0
102
RTVSPropertyOp59
 70
     0
102
RTVSPropertyOp60
 70
     0
102
RTVSPropertyOp61
 70
     0
102
RTVSPropertyOp62
 70
     0
  0
XRECORD
  5
172
102
{ACAD_REACTORS
330
171
102
}
330
171
100
AcDbXrecord
280
     1
102
RTVSPost2010Prop28
280
     0
102
RTVSPost2010PropOp28
 70
     1
102
RTVSPost2010Prop29
280
     1
102
RTVSPost2010PropOp29
 70
     1
102
RTVSPost2010Prop30
280
     1
102
RTVSPost2010PropOp30
 70
     1
102
RTVSPost2010Prop31
280
     0
102
RTVSPost2010PropOp31
 70
     1
102
RTVSPost2010Prop32
280
     0
102
RTVSPost2010PropOp32
 70
     1
102
RTVSPost2010Prop33
280
     0
102
RTVSPost2010PropOp33
 70
     1
102
RTVSPost2010Prop34
280
     0
102
RTVSPost2010PropOp34
 70
     1
102
RTVSPost2010Prop35
280
     0
102
RTVSPost2010PropOp35
 70
     1
102
RTVSPost2010Prop36
280
     0
102
RTVSPost2010PropOp36
 70
     1
102
RTVSPost2010Prop37
 90
       50
102
RTVSPost2010PropOp37
 70
     1
102
RTVSPost2010Prop38
140
0.0
102
RTVSPost2010PropOp38
 70
     1
102
RTVSPost2010Prop39
140
1.0
102
RTVSPost2010PropOp39
 70
     1
102
RTVSPost2010Prop40
 90
        0
102
RTVSPost2010PropOp40
 70
     1
102
RTVSPost2010Prop41ColorIndex
 90
       18
102
RTVSPost2010Prop41ColorRGB
 90
        0
102
RTVSPost2010PropOp41
 70
     1
102
RTVSPost2010Prop42
 90
       50
102
RTVSPost2010PropOp42
 70
     1
102
RTVSPost2010Prop43
 90
        3
102
RTVSPost2010PropOp43
 70
     1
102
RTVSPost2010Prop44ColorIndex
 90
        5
102
RTVSPost2010Prop44ColorRGB
 90
      255
102
RTVSPost2010PropOp44
 70
     1
102
RTVSPost2010Prop45
280
     0
102
RTVSPost2010PropOp45
 70
     1
102
RTVSPost2010Prop46
 90
       50
102
RTVSPost2010PropOp46
 70
     1
102
RTVSPost2010Prop47
 90
       50
102
RTVSPost2010PropOp47
 70
     1
102
RTVSPost2010Prop48
 90
       50
102
RTVSPost2010PropOp48
 70
     1
102
RTVSPost2010Prop49
280
     0
102
RTVSPost2010PropOp49
 70
     1
102
RTVSPost2010Prop50
 90
       50
102
RTVSPost2010PropOp50
 70
     1
102
RTVSPost2010Prop51ColorIndex
 90
      256
102
RTVSPost2010Prop51ColorRGB
 90
-16777216
102
RTVSPost2010PropOp51
 70
     0
102
RTVSPost2010Prop52
140
1.0
102
RTVSPost2010PropOp52
 70
     0
102
RTVSPost2010Prop53
 90
        2
102
RTVSPost2010PropOp53
 70
     1
102
RTVSPost2010Prop54
  1
strokes_ogs.tif
102
RTVSPost2010PropOp54
 70
     1
102
RTVSPost2010Prop55
280
     0
102
RTVSPost2010PropOp55
 70
     1
102
RTVSPost2010Prop56
140
1.0
102
RTVSPost2010PropOp56
 70
     1
102
RTVSPost2010Prop57
140
1.0
102
RTVSPost2010PropOp57
 70
     1
102
RTVSPropertyOp0
 70
     1
102
RTVSPropertyOp1
 70
     1
102
RTVSPropertyOp2
 70
     1
102
RTVSPropertyOp3
 70
     1
102
RTVSPropertyOp4
 70
     1
102
RTVSPropertyOp5
 70
     1
102
RTVSPropertyOp6
 70
     1
102
RTVSPropertyOp7
 70
     1
102
RTVSPropertyOp8
 70
     1
102
RTVSPropertyOp9
 70
     1
102
RTVSPropertyOp10
 70
     1
102
RTVSPropertyOp11
 70
     1
102
RTVSPropertyOp12
 70
     1
102
RTVSPropertyOp13
 70
     1
102
RTVSPropertyOp14
 70
     1
102
RTVSPropertyOp15
 70
     1
102
RTVSPropertyOp16
 70
     1
102
RTVSPropertyOp17
 70
     1
102
RTVSPropertyOp18
 70
     1
102
RTVSPropertyOp19
 70
     1
102
RTVSPropertyOp20
 70
     1
102
RTVSPropertyOp21
 70
     1
102
RTVSPropertyOp22
 70
     1
102
RTVSPropertyOp23
 70
     1
102
RTVSPropertyOp24
 70
     1
102
RTVSPropertyOp25
 70
     1
102
RTVSPropertyOp26
 70
     1
102
RTVSPropertyOp27
 70
     1
102
RTVSPropertyOp28
 70
     1
102
RTVSPropertyOp29
 70
     1
102
RTVSPropertyOp30
 70
     1
102
RTVSPropertyOp31
 70
     1
102
RTVSPropertyOp32
 70
     1
102
RTVSPropertyOp33
 70
     1
102
RTVSPropertyOp34
 70
     1
102
RTVSPropertyOp35
 70
     1
102
RTVSPropertyOp36
 70
     1
102
RTVSPropertyOp37
 70
     1
102
RTVSPropertyOp38
 70
     1
102
RTVSPropertyOp39
 70
     1
102
RTVSPropertyOp40
 70
     1
102
RTVSPropertyOp41
 70
     1
102
RTVSPropertyOp42
 70
     1
102
RTVSPropertyOp43
 70
     1
102
RTVSPropertyOp44
 70
     1
102
RTVSPropertyOp45
 70
     1
102
RTVSPropertyOp46
 70
     1
102
RTVSPropertyOp47
 70
     1
102
RTVSPropertyOp48
 70
     1
102
RTVSPropertyOp49
 70
     1
102
RTVSPropertyOp50
 70
     1
102
RTVSPropertyOp51
 70
     0
102
RTVSPropertyOp52
 70
     0
102
RTVSPropertyOp53
 70
     1
102
RTVSPropertyOp54
 70
     1
102
RTVSPropertyOp55
 70
     1
102
RTVSPropertyOp56
 70
     1
102
RTVSPropertyOp57
 70
     1
102
RTVSPropertyOp58
 70
     1
102
RTVSPropertyOp59
 70
     1
102
RTVSPropertyOp60
 70
     1
102
RTVSPropertyOp61
 70
     1
102
RTVSPropertyOp62
 70
     1
  0
XRECORD
  5
188
102
{ACAD_REACTORS
330
187
102
}
330
187
100
AcDbXrecord
280
     1
102
RTVSPost2010Prop28
280
     0
102
RTVSPost2010PropOp28
 70
     1
102
RTVSPost2010Prop29
280
     1
102
RTVSPost2010PropOp29
 70
     1
102
RTVSPost2010Prop30
280
     1
102
RTVSPost2010PropOp30
 70
     1
102
RTVSPost2010Prop31
280
     0
102
RTVSPost2010PropOp31
 70
     1
102
RTVSPost2010Prop32
280
     0
102
RTVSPost2010PropOp32
 70
     1
102
RTVSPost2010Prop33
280
     0
102
RTVSPost2010PropOp33
 70
     1
102
RTVSPost2010Prop34
280
     0
102
RTVSPost2010PropOp34
 70
     1
102
RTVSPost2010Prop35
280
     0
102
RTVSPost2010PropOp35
 70
     1
102
RTVSPost2010Prop36
280
     0
102
RTVSPost2010PropOp36
 70
     1
102
RTVSPost2010Prop37
 90
       50
102
RTVSPost2010PropOp37
 70
     1
102
RTVSPost2010Prop38
140
0.0
102
RTVSPost2010PropOp38
 70
     1
102
RTVSPost2010Prop39
140
1.0
102
RTVSPost2010PropOp39
 70
     1
102
RTVSPost2010Prop40
 90
        0
102
RTVSPost2010PropOp40
 70
     1
102
RTVSPost2010Prop41ColorIndex
 90
       18
102
RTVSPost2010Prop41ColorRGB
 90
        0
102
RTVSPost2010PropOp41
 70
     1
102
RTVSPost2010Prop42
 90
       50
102
RTVSPost2010PropOp42
 70
     1
102
RTVSPost2010Prop43
 90
        3
102
RTVSPost2010PropOp43
 70
     1
102
RTVSPost2010Prop44ColorIndex
 90
        5
102
RTVSPost2010Prop44ColorRGB
 90
      255
102
RTVSPost2010PropOp44
 70
     1
102
RTVSPost2010Prop45
280
     0
102
RTVSPost2010PropOp45
 70
     1
102
RTVSPost2010Prop46
 90
       50
102
RTVSPost2010PropOp46
 70
     1
102
RTVSPost2010Prop47
 90
       50
102
RTVSPost2010PropOp47
 70
     1
102
RTVSPost2010Prop48
 90
       50
102
RTVSPost2010PropOp48
 70
     1
102
RTVSPost2010Prop49
280
     0
102
RTVSPost2010PropOp49
 70
     1
102
RTVSPost2010Prop50
 90
       50
102
RTVSPost2010PropOp50
 70
     1
102
RTVSPost2010Prop51ColorIndex
 90
      256
102
RTVSPost2010Prop51ColorRGB
 90
-16777216
102
RTVSPost2010PropOp51
 70
     0
102
RTVSPost2010Prop52
140
1.0
102
RTVSPost2010PropOp52
 70
     0
102
RTVSPost2010Prop53
 90
        2
102
RTVSPost2010PropOp53
 70
     1
102
RTVSPost2010Prop54
  1
strokes_ogs.tif
102
RTVSPost2010PropOp54
 70
     1
102
RTVSPost2010Prop55
280
     0
102
RTVSPost2010PropOp55
 70
     1
102
RTVSPost2010Prop56
140
1.0
102
RTVSPost2010PropOp56
 70
     1
102
RTVSPost2010Prop57
140
1.0
102
RTVSPost2010PropOp57
 70
     1
102
RTVSPropertyOp0
 70
     1
102
RTVSPropertyOp1
 70
     1
102
RTVSPropertyOp2
 70
     1
102
RTVSPropertyOp3
 70
     1
102
RTVSPropertyOp4
 70
     1
102
RTVSPropertyOp5
 70
     1
102
RTVSPropertyOp6
 70
     1
102
RTVSPropertyOp7
 70
     1
102
RTVSPropertyOp8
 70
     1
102
RTVSPropertyOp9
 70
     1
102
RTVSPropertyOp10
 70
     1
102
RTVSPropertyOp11
 70
     1
102
RTVSPropertyOp12
 70
     1
102
RTVSPropertyOp13
 70
     1
102
RTVSPropertyOp14
 70
     1
102
RTVSPropertyOp15
 70
     1
102
RTVSPropertyOp16
 70
     1
102
RTVSPropertyOp17
 70
     1
102
RTVSPropertyOp18
 70
     1
102
RTVSPropertyOp19
 70
     1
102
RTVSPropertyOp20
 70
     1
102
RTVSPropertyOp21
 70
     1
102
RTVSPropertyOp22
 70
     1
102
RTVSPropertyOp23
 70
     1
102
RTVSPropertyOp24
 70
     1
102
RTVSPropertyOp25
 70
     1
102
RTVSPropertyOp26
 70
     1
102
RTVSPropertyOp27
 70
     1
102
RTVSPropertyOp28
 70
     1
102
RTVSPropertyOp29
 70
     1
102
RTVSPropertyOp30
 70
     1
102
RTVSPropertyOp31
 70
     1
102
RTVSPropertyOp32
 70
     1
102
RTVSPropertyOp33
 70
     1
102
RTVSPropertyOp34
 70
     1
102
RTVSPropertyOp35
 70
     1
102
RTVSPropertyOp36
 70
     1
102
RTVSPropertyOp37
 70
     1
102
RTVSPropertyOp38
 70
     1
102
RTVSPropertyOp39
 70
     1
102
RTVSPropertyOp40
 70
     1
102
RTVSPropertyOp41
 70
     1
102
RTVSPropertyOp42
 70
     1
102
RTVSPropertyOp43
 70
     1
102
RTVSPropertyOp44
 70
     1
102
RTVSPropertyOp45
 70
     1
102
RTVSPropertyOp46
 70
     1
102
RTVSPropertyOp47
 70
     1
102
RTVSPropertyOp48
 70
     1
102
RTVSPropertyOp49
 70
     1
102
RTVSPropertyOp50
 70
     1
102
RTVSPropertyOp51
 70
     0
102
RTVSPropertyOp52
 70
     0
102
RTVSPropertyOp53
 70
     1
102
RTVSPropertyOp54
 70
     1
102
RTVSPropertyOp55
 70
     1
102
RTVSPropertyOp56
 70
     1
102
RTVSPropertyOp57
 70
     1
102
RTVSPropertyOp58
 70
     1
102
RTVSPropertyOp59
 70
     1
102
RTVSPropertyOp60
 70
     1
102
RTVSPropertyOp61
 70
     1
102
RTVSPropertyOp62
 70
     1
  0
XRECORD
  5
186
102
{ACAD_REACTORS
330
185
102
}
330
185
100
AcDbXrecord
280
     1
102
RTVSPost2010Prop28
280
     0
102
RTVSPost2010PropOp28
 70
     1
102
RTVSPost2010Prop29
280
     1
102
RTVSPost2010PropOp29
 70
     1
102
RTVSPost2010Prop30
280
     1
102
RTVSPost2010PropOp30
 70
     1
102
RTVSPost2010Prop31
280
     0
102
RTVSPost2010PropOp31
 70
     1
102
RTVSPost2010Prop32
280
     0
102
RTVSPost2010PropOp32
 70
     1
102
RTVSPost2010Prop33
280
     0
102
RTVSPost2010PropOp33
 70
     1
102
RTVSPost2010Prop34
280
     0
102
RTVSPost2010PropOp34
 70
     1
102
RTVSPost2010Prop35
280
     0
102
RTVSPost2010PropOp35
 70
     1
102
RTVSPost2010Prop36
280
     0
102
RTVSPost2010PropOp36
 70
     1
102
RTVSPost2010Prop37
 90
       50
102
RTVSPost2010PropOp37
 70
     1
102
RTVSPost2010Prop38
140
0.0
102
RTVSPost2010PropOp38
 70
     1
102
RTVSPost2010Prop39
140
1.0
102
RTVSPost2010PropOp39
 70
     1
102
RTVSPost2010Prop40
 90
        0
102
RTVSPost2010PropOp40
 70
     1
102
RTVSPost2010Prop41ColorIndex
 90
       18
102
RTVSPost2010Prop41ColorRGB
 90
        0
102
RTVSPost2010PropOp41
 70
     1
102
RTVSPost2010Prop42
 90
       50
102
RTVSPost2010PropOp42
 70
     1
102
RTVSPost2010Prop43
 90
        3
102
RTVSPost2010PropOp43
 70
     1
102
RTVSPost2010Prop44ColorIndex
 90
        5
102
RTVSPost2010Prop44ColorRGB
 90
      255
102
RTVSPost2010PropOp44
 70
     1
102
RTVSPost2010Prop45
280
     0
102
RTVSPost2010PropOp45
 70
     1
102
RTVSPost2010Prop46
 90
       50
102
RTVSPost2010PropOp46
 70
     1
102
RTVSPost2010Prop47
 90
       50
102
RTVSPost2010PropOp47
 70
     1
102
RTVSPost2010Prop48
 90
       50
102
RTVSPost2010PropOp48
 70
     1
102
RTVSPost2010Prop49
280
     0
102
RTVSPost2010PropOp49
 70
     1
102
RTVSPost2010Prop50
 90
       50
102
RTVSPost2010PropOp50
 70
     1
102
RTVSPost2010Prop51ColorIndex
 90
      256
102
RTVSPost2010Prop51ColorRGB
 90
-16777216
102
RTVSPost2010PropOp51
 70
     0
102
RTVSPost2010Prop52
140
1.0
102
RTVSPost2010PropOp52
 70
     0
102
RTVSPost2010Prop53
 90
        2
102
RTVSPost2010PropOp53
 70
     1
102
RTVSPost2010Prop54
  1
strokes_ogs.tif
102
RTVSPost2010PropOp54
 70
     1
102
RTVSPost2010Prop55
280
     0
102
RTVSPost2010PropOp55
 70
     1
102
RTVSPost2010Prop56
140
1.0
102
RTVSPost2010PropOp56
 70
     1
102
RTVSPost2010Prop57
140
1.0
102
RTVSPost2010PropOp57
 70
     1
102
RTVSPropertyOp0
 70
     1
102
RTVSPropertyOp1
 70
     1
102
RTVSPropertyOp2
 70
     1
102
RTVSPropertyOp3
 70
     1
102
RTVSPropertyOp4
 70
     1
102
RTVSPropertyOp5
 70
     1
102
RTVSPropertyOp6
 70
     1
102
RTVSPropertyOp7
 70
     1
102
RTVSPropertyOp8
 70
     1
102
RTVSPropertyOp9
 70
     1
102
RTVSPropertyOp10
 70
     1
102
RTVSPropertyOp11
 70
     1
102
RTVSPropertyOp12
 70
     1
102
RTVSPropertyOp13
 70
     1
102
RTVSPropertyOp14
 70
     1
102
RTVSPropertyOp15
 70
     1
102
RTVSPropertyOp16
 70
     1
102
RTVSPropertyOp17
 70
     1
102
RTVSPropertyOp18
 70
     1
102
RTVSPropertyOp19
 70
     1
102
RTVSPropertyOp20
 70
     1
102
RTVSPropertyOp21
 70
     1
102
RTVSPropertyOp22
 70
     1
102
RTVSPropertyOp23
 70
     1
102
RTVSPropertyOp24
 70
     1
102
RTVSPropertyOp25
 70
     1
102
RTVSPropertyOp26
 70
     1
102
RTVSPropertyOp27
 70
     1
102
RTVSPropertyOp28
 70
     1
102
RTVSPropertyOp29
 70
     1
102
RTVSPropertyOp30
 70
     1
102
RTVSPropertyOp31
 70
     1
102
RTVSPropertyOp32
 70
     1
102
RTVSPropertyOp33
 70
     1
102
RTVSPropertyOp34
 70
     1
102
RTVSPropertyOp35
 70
     1
102
RTVSPropertyOp36
 70
     1
102
RTVSPropertyOp37
 70
     1
102
RTVSPropertyOp38
 70
     1
102
RTVSPropertyOp39
 70
     1
102
RTVSPropertyOp40
 70
     1
102
RTVSPropertyOp41
 70
     1
102
RTVSPropertyOp42
 70
     1
102
RTVSPropertyOp43
 70
     1
102
RTVSPropertyOp44
 70
     1
102
RTVSPropertyOp45
 70
     1
102
RTVSPropertyOp46
 70
     1
102
RTVSPropertyOp47
 70
     1
102
RTVSPropertyOp48
 70
     1
102
RTVSPropertyOp49
 70
     1
102
RTVSPropertyOp50
 70
     1
102
RTVSPropertyOp51
 70
     0
102
RTVSPropertyOp52
 70
     0
102
RTVSPropertyOp53
 70
     1
102
RTVSPropertyOp54
 70
     1
102
RTVSPropertyOp55
 70
     1
102
RTVSPropertyOp56
 70
     1
102
RTVSPropertyOp57
 70
     1
102
RTVSPropertyOp58
 70
     1
102
RTVSPropertyOp59
 70
     1
102
RTVSPropertyOp60
 70
     1
102
RTVSPropertyOp61
 70
     1
102
RTVSPropertyOp62
 70
     1
  0
XRECORD
  5
180
102
{ACAD_REACTORS
330
17F
102
}
330
17F
100
AcDbXrecord
280
     1
102
RTVSPost2010Prop28
280
     0
102
RTVSPost2010PropOp28
 70
     1
102
RTVSPost2010Prop29
280
     1
102
RTVSPost2010PropOp29
 70
     1
102
RTVSPost2010Prop30
280
     1
102
RTVSPost2010PropOp30
 70
     1
102
RTVSPost2010Prop31
280
     0
102
RTVSPost2010PropOp31
 70
     1
102
RTVSPost2010Prop32
280
     0
102
RTVSPost2010PropOp32
 70
     1
102
RTVSPost2010Prop33
280
     0
102
RTVSPost2010PropOp33
 70
     1
102
RTVSPost2010Prop34
280
     0
102
RTVSPost2010PropOp34
 70
     1
102
RTVSPost2010Prop35
280
     0
102
RTVSPost2010PropOp35
 70
     1
102
RTVSPost2010Prop36
280
     0
102
RTVSPost2010PropOp36
 70
     1
102
RTVSPost2010Prop37
 90
       50
102
RTVSPost2010PropOp37
 70
     1
102
RTVSPost2010Prop38
140
0.0
102
RTVSPost2010PropOp38
 70
     1
102
RTVSPost2010Prop39
140
1.0
102
RTVSPost2010PropOp39
 70
     1
102
RTVSPost2010Prop40
 90
        0
102
RTVSPost2010PropOp40
 70
     1
102
RTVSPost2010Prop41ColorIndex
 90
       18
102
RTVSPost2010Prop41ColorRGB
 90
        0
102
RTVSPost2010PropOp41
 70
     1
102
RTVSPost2010Prop42
 90
       50
102
RTVSPost2010PropOp42
 70
     1
102
RTVSPost2010Prop43
 90
        3
102
RTVSPost2010PropOp43
 70
     1
102
RTVSPost2010Prop44ColorIndex
 90
        5
102
RTVSPost2010Prop44ColorRGB
 90
      255
102
RTVSPost2010PropOp44
 70
     1
102
RTVSPost2010Prop45
280
     0
102
RTVSPost2010PropOp45
 70
     1
102
RTVSPost2010Prop46
 90
       50
102
RTVSPost2010PropOp46
 70
     1
102
RTVSPost2010Prop47
 90
       50
102
RTVSPost2010PropOp47
 70
     1
102
RTVSPost2010Prop48
 90
       50
102
RTVSPost2010PropOp48
 70
     1
102
RTVSPost2010Prop49
280
     0
102
RTVSPost2010PropOp49
 70
     1
102
RTVSPost2010Prop50
 90
       50
102
RTVSPost2010PropOp50
 70
     1
102
RTVSPost2010Prop51ColorIndex
 90
      256
102
RTVSPost2010Prop51ColorRGB
 90
-16777216
102
RTVSPost2010PropOp51
 70
     0
102
RTVSPost2010Prop52
140
1.0
102
RTVSPost2010PropOp52
 70
     0
102
RTVSPost2010Prop53
 90
        2
102
RTVSPost2010PropOp53
 70
     1
102
RTVSPost2010Prop54
  1
strokes_ogs.tif
102
RTVSPost2010PropOp54
 70
     1
102
RTVSPost2010Prop55
280
     0
102
RTVSPost2010PropOp55
 70
     1
102
RTVSPost2010Prop56
140
1.0
102
RTVSPost2010PropOp56
 70
     1
102
RTVSPost2010Prop57
140
1.0
102
RTVSPost2010PropOp57
 70
     1
102
RTVSPropertyOp0
 70
     1
102
RTVSPropertyOp1
 70
     1
102
RTVSPropertyOp2
 70
     1
102
RTVSPropertyOp3
 70
     1
102
RTVSPropertyOp4
 70
     1
102
RTVSPropertyOp5
 70
     1
102
RTVSPropertyOp6
 70
     1
102
RTVSPropertyOp7
 70
     1
102
RTVSPropertyOp8
 70
     1
102
RTVSPropertyOp9
 70
     1
102
RTVSPropertyOp10
 70
     1
102
RTVSPropertyOp11
 70
     1
102
RTVSPropertyOp12
 70
     1
102
RTVSPropertyOp13
 70
     1
102
RTVSPropertyOp14
 70
     1
102
RTVSPropertyOp15
 70
     1
102
RTVSPropertyOp16
 70
     1
102
RTVSPropertyOp17
 70
     1
102
RTVSPropertyOp18
 70
     1
102
RTVSPropertyOp19
 70
     1
102
RTVSPropertyOp20
 70
     1
102
RTVSPropertyOp21
 70
     1
102
RTVSPropertyOp22
 70
     1
102
RTVSPropertyOp23
 70
     1
102
RTVSPropertyOp24
 70
     1
102
RTVSPropertyOp25
 70
     1
102
RTVSPropertyOp26
 70
     1
102
RTVSPropertyOp27
 70
     1
102
RTVSPropertyOp28
 70
     1
102
RTVSPropertyOp29
 70
     1
102
RTVSPropertyOp30
 70
     1
102
RTVSPropertyOp31
 70
     1
102
RTVSPropertyOp32
 70
     1
102
RTVSPropertyOp33
 70
     1
102
RTVSPropertyOp34
 70
     1
102
RTVSPropertyOp35
 70
     1
102
RTVSPropertyOp36
 70
     1
102
RTVSPropertyOp37
 70
     1
102
RTVSPropertyOp38
 70
     1
102
RTVSPropertyOp39
 70
     1
102
RTVSPropertyOp40
 70
     1
102
RTVSPropertyOp41
 70
     1
102
RTVSPropertyOp42
 70
     1
102
RTVSPropertyOp43
 70
     1
102
RTVSPropertyOp44
 70
     1
102
RTVSPropertyOp45
 70
     1
102
RTVSPropertyOp46
 70
     1
102
RTVSPropertyOp47
 70
     1
102
RTVSPropertyOp48
 70
     1
102
RTVSPropertyOp49
 70
     1
102
RTVSPropertyOp50
 70
     1
102
RTVSPropertyOp51
 70
     0
102
RTVSPropertyOp52
 70
     0
102
RTVSPropertyOp53
 70
     1
102
RTVSPropertyOp54
 70
     1
102
RTVSPropertyOp55
 70
     1
102
RTVSPropertyOp56
 70
     1
102
RTVSPropertyOp57
 70
     1
102
RTVSPropertyOp58
 70
     1
102
RTVSPropertyOp59
 70
     1
102
RTVSPropertyOp60
 70
     1
102
RTVSPropertyOp61
 70
     1
102
RTVSPropertyOp62
 70
     1
  0
XRECORD
  5
182
102
{ACAD_REACTORS
330
181
102
}
330
181
100
AcDbXrecord
280
     1
102
RTVSPost2010Prop28
280
     0
102
RTVSPost2010PropOp28
 70
     1
102
RTVSPost2010Prop29
280
     1
102
RTVSPost2010PropOp29
 70
     1
102
RTVSPost2010Prop30
280
     1
102
RTVSPost2010PropOp30
 70
     1
102
RTVSPost2010Prop31
280
     0
102
RTVSPost2010PropOp31
 70
     1
102
RTVSPost2010Prop32
280
     0
102
RTVSPost2010PropOp32
 70
     1
102
RTVSPost2010Prop33
280
     0
102
RTVSPost2010PropOp33
 70
     1
102
RTVSPost2010Prop34
280
     0
102
RTVSPost2010PropOp34
 70
     1
102
RTVSPost2010Prop35
280
     0
102
RTVSPost2010PropOp35
 70
     1
102
RTVSPost2010Prop36
280
     0
102
RTVSPost2010PropOp36
 70
     1
102
RTVSPost2010Prop37
 90
       50
102
RTVSPost2010PropOp37
 70
     1
102
RTVSPost2010Prop38
140
0.0
102
RTVSPost2010PropOp38
 70
     1
102
RTVSPost2010Prop39
140
1.0
102
RTVSPost2010PropOp39
 70
     1
102
RTVSPost2010Prop40
 90
        0
102
RTVSPost2010PropOp40
 70
     1
102
RTVSPost2010Prop41ColorIndex
 90
       18
102
RTVSPost2010Prop41ColorRGB
 90
        0
102
RTVSPost2010PropOp41
 70
     1
102
RTVSPost2010Prop42
 90
       50
102
RTVSPost2010PropOp42
 70
     1
102
RTVSPost2010Prop43
 90
        3
102
RTVSPost2010PropOp43
 70
     1
102
RTVSPost2010Prop44ColorIndex
 90
        5
102
RTVSPost2010Prop44ColorRGB
 90
      255
102
RTVSPost2010PropOp44
 70
     1
102
RTVSPost2010Prop45
280
     0
102
RTVSPost2010PropOp45
 70
     1
102
RTVSPost2010Prop46
 90
       50
102
RTVSPost2010PropOp46
 70
     1
102
RTVSPost2010Prop47
 90
       50
102
RTVSPost2010PropOp47
 70
     1
102
RTVSPost2010Prop48
 90
       50
102
RTVSPost2010PropOp48
 70
     1
102
RTVSPost2010Prop49
280
     0
102
RTVSPost2010PropOp49
 70
     1
102
RTVSPost2010Prop50
 90
       50
102
RTVSPost2010PropOp50
 70
     1
102
RTVSPost2010Prop51ColorIndex
 90
      256
102
RTVSPost2010Prop51ColorRGB
 90
-16777216
102
RTVSPost2010PropOp51
 70
     0
102
RTVSPost2010Prop52
140
1.0
102
RTVSPost2010PropOp52
 70
     0
102
RTVSPost2010Prop53
 90
        2
102
RTVSPost2010PropOp53
 70
     1
102
RTVSPost2010Prop54
  1
strokes_ogs.tif
102
RTVSPost2010PropOp54
 70
     1
102
RTVSPost2010Prop55
280
     0
102
RTVSPost2010PropOp55
 70
     1
102
RTVSPost2010Prop56
140
1.0
102
RTVSPost2010PropOp56
 70
     1
102
RTVSPost2010Prop57
140
1.0
102
RTVSPost2010PropOp57
 70
     1
102
RTVSPropertyOp0
 70
     1
102
RTVSPropertyOp1
 70
     1
102
RTVSPropertyOp2
 70
     1
102
RTVSPropertyOp3
 70
     1
102
RTVSPropertyOp4
 70
     1
102
RTVSPropertyOp5
 70
     1
102
RTVSPropertyOp6
 70
     1
102
RTVSPropertyOp7
 70
     1
102
RTVSPropertyOp8
 70
     1
102
RTVSPropertyOp9
 70
     1
102
RTVSPropertyOp10
 70
     1
102
RTVSPropertyOp11
 70
     1
102
RTVSPropertyOp12
 70
     1
102
RTVSPropertyOp13
 70
     1
102
RTVSPropertyOp14
 70
     1
102
RTVSPropertyOp15
 70
     1
102
RTVSPropertyOp16
 70
     1
102
RTVSPropertyOp17
 70
     1
102
RTVSPropertyOp18
 70
     1
102
RTVSPropertyOp19
 70
     1
102
RTVSPropertyOp20
 70
     1
102
RTVSPropertyOp21
 70
     1
102
RTVSPropertyOp22
 70
     1
102
RTVSPropertyOp23
 70
     1
102
RTVSPropertyOp24
 70
     1
102
RTVSPropertyOp25
 70
     1
102
RTVSPropertyOp26
 70
     1
102
RTVSPropertyOp27
 70
     1
102
RTVSPropertyOp28
 70
     1
102
RTVSPropertyOp29
 70
     1
102
RTVSPropertyOp30
 70
     1
102
RTVSPropertyOp31
 70
     1
102
RTVSPropertyOp32
 70
     1
102
RTVSPropertyOp33
 70
     1
102
RTVSPropertyOp34
 70
     1
102
RTVSPropertyOp35
 70
     1
102
RTVSPropertyOp36
 70
     1
102
RTVSPropertyOp37
 70
     1
102
RTVSPropertyOp38
 70
     1
102
RTVSPropertyOp39
 70
     1
102
RTVSPropertyOp40
 70
     1
102
RTVSPropertyOp41
 70
     1
102
RTVSPropertyOp42
 70
     1
102
RTVSPropertyOp43
 70
     1
102
RTVSPropertyOp44
 70
     1
102
RTVSPropertyOp45
 70
     1
102
RTVSPropertyOp46
 70
     1
102
RTVSPropertyOp47
 70
     1
102
RTVSPropertyOp48
 70
     1
102
RTVSPropertyOp49
 70
     1
102
RTVSPropertyOp50
 70
     1
102
RTVSPropertyOp51
 70
     0
102
RTVSPropertyOp52
 70
     0
102
RTVSPropertyOp53
 70
     1
102
RTVSPropertyOp54
 70
     1
102
RTVSPropertyOp55
 70
     1
102
RTVSPropertyOp56
 70
     1
102
RTVSPropertyOp57
 70
     1
102
RTVSPropertyOp58
 70
     1
102
RTVSPropertyOp59
 70
     1
102
RTVSPropertyOp60
 70
     1
102
RTVSPropertyOp61
 70
     1
102
RTVSPropertyOp62
 70
     1
  0
XRECORD
  5
178
102
{ACAD_REACTORS
330
177
102
}
330
177
100
AcDbXrecord
280
     1
102
RTVSPost2010Prop28
280
     0
102
RTVSPost2010PropOp28
 70
     1
102
RTVSPost2010Prop29
280
     1
102
RTVSPost2010PropOp29
 70
     1
102
RTVSPost2010Prop30
280
     1
102
RTVSPost2010PropOp30
 70
     1
102
RTVSPost2010Prop31
280
     0
102
RTVSPost2010PropOp31
 70
     1
102
RTVSPost2010Prop32
280
     0
102
RTVSPost2010PropOp32
 70
     1
102
RTVSPost2010Prop33
280
     0
102
RTVSPost2010PropOp33
 70
     1
102
RTVSPost2010Prop34
280
     0
102
RTVSPost2010PropOp34
 70
     1
102
RTVSPost2010Prop35
280
     0
102
RTVSPost2010PropOp35
 70
     1
102
RTVSPost2010Prop36
280
     0
102
RTVSPost2010PropOp36
 70
     1
102
RTVSPost2010Prop37
 90
       50
102
RTVSPost2010PropOp37
 70
     1
102
RTVSPost2010Prop38
140
0.0
102
RTVSPost2010PropOp38
 70
     1
102
RTVSPost2010Prop39
140
1.0
102
RTVSPost2010PropOp39
 70
     1
102
RTVSPost2010Prop40
 90
        0
102
RTVSPost2010PropOp40
 70
     1
102
RTVSPost2010Prop41ColorIndex
 90
       18
102
RTVSPost2010Prop41ColorRGB
 90
        0
102
RTVSPost2010PropOp41
 70
     1
102
RTVSPost2010Prop42
 90
       50
102
RTVSPost2010PropOp42
 70
     1
102
RTVSPost2010Prop43
 90
        3
102
RTVSPost2010PropOp43
 70
     1
102
RTVSPost2010Prop44ColorIndex
 90
        5
102
RTVSPost2010Prop44ColorRGB
 90
      255
102
RTVSPost2010PropOp44
 70
     1
102
RTVSPost2010Prop45
280
     0
102
RTVSPost2010PropOp45
 70
     1
102
RTVSPost2010Prop46
 90
       50
102
RTVSPost2010PropOp46
 70
     1
102
RTVSPost2010Prop47
 90
       50
102
RTVSPost2010PropOp47
 70
     1
102
RTVSPost2010Prop48
 90
       50
102
RTVSPost2010PropOp48
 70
     1
102
RTVSPost2010Prop49
280
     0
102
RTVSPost2010PropOp49
 70
     1
102
RTVSPost2010Prop50
 90
       50
102
RTVSPost2010PropOp50
 70
     1
102
RTVSPost2010Prop51ColorIndex
 90
      256
102
RTVSPost2010Prop51ColorRGB
 90
-16777216
102
RTVSPost2010PropOp51
 70
     0
102
RTVSPost2010Prop52
140
1.0
102
RTVSPost2010PropOp52
 70
     0
102
RTVSPost2010Prop53
 90
        2
102
RTVSPost2010PropOp53
 70
     1
102
RTVSPost2010Prop54
  1
strokes_ogs.tif
102
RTVSPost2010PropOp54
 70
     1
102
RTVSPost2010Prop55
280
     0
102
RTVSPost2010PropOp55
 70
     1
102
RTVSPost2010Prop56
140
1.0
102
RTVSPost2010PropOp56
 70
     1
102
RTVSPost2010Prop57
140
1.0
102
RTVSPost2010PropOp57
 70
     1
102
RTVSPropertyOp0
 70
     1
102
RTVSPropertyOp1
 70
     1
102
RTVSPropertyOp2
 70
     1
102
RTVSPropertyOp3
 70
     1
102
RTVSPropertyOp4
 70
     1
102
RTVSPropertyOp5
 70
     1
102
RTVSPropertyOp6
 70
     1
102
RTVSPropertyOp7
 70
     1
102
RTVSPropertyOp8
 70
     1
102
RTVSPropertyOp9
 70
     1
102
RTVSPropertyOp10
 70
     1
102
RTVSPropertyOp11
 70
     1
102
RTVSPropertyOp12
 70
     1
102
RTVSPropertyOp13
 70
     1
102
RTVSPropertyOp14
 70
     1
102
RTVSPropertyOp15
 70
     1
102
RTVSPropertyOp16
 70
     1
102
RTVSPropertyOp17
 70
     1
102
RTVSPropertyOp18
 70
     1
102
RTVSPropertyOp19
 70
     1
102
RTVSPropertyOp20
 70
     1
102
RTVSPropertyOp21
 70
     1
102
RTVSPropertyOp22
 70
     1
102
RTVSPropertyOp23
 70
     1
102
RTVSPropertyOp24
 70
     1
102
RTVSPropertyOp25
 70
     1
102
RTVSPropertyOp26
 70
     1
102
RTVSPropertyOp27
 70
     1
102
RTVSPropertyOp28
 70
     1
102
RTVSPropertyOp29
 70
     1
102
RTVSPropertyOp30
 70
     1
102
RTVSPropertyOp31
 70
     1
102
RTVSPropertyOp32
 70
     1
102
RTVSPropertyOp33
 70
     1
102
RTVSPropertyOp34
 70
     1
102
RTVSPropertyOp35
 70
     1
102
RTVSPropertyOp36
 70
     1
102
RTVSPropertyOp37
 70
     1
102
RTVSPropertyOp38
 70
     1
102
RTVSPropertyOp39
 70
     1
102
RTVSPropertyOp40
 70
     1
102
RTVSPropertyOp41
 70
     1
102
RTVSPropertyOp42
 70
     1
102
RTVSPropertyOp43
 70
     1
102
RTVSPropertyOp44
 70
     1
102
RTVSPropertyOp45
 70
     1
102
RTVSPropertyOp46
 70
     1
102
RTVSPropertyOp47
 70
     1
102
RTVSPropertyOp48
 70
     1
102
RTVSPropertyOp49
 70
     1
102
RTVSPropertyOp50
 70
     1
102
RTVSPropertyOp51
 70
     0
102
RTVSPropertyOp52
 70
     0
102
RTVSPropertyOp53
 70
     1
102
RTVSPropertyOp54
 70
     1
102
RTVSPropertyOp55
 70
     1
102
RTVSPropertyOp56
 70
     1
102
RTVSPropertyOp57
 70
     1
102
RTVSPropertyOp58
 70
     1
102
RTVSPropertyOp59
 70
     1
102
RTVSPropertyOp60
 70
     1
102
RTVSPropertyOp61
 70
     1
102
RTVSPropertyOp62
 70
     1
  0
XRECORD
  5
16C
102
{ACAD_REACTORS
330
16B
102
}
330
16B
100
AcDbXrecord
280
     1
102
RTVSPost2010Prop28
280
     0
102
RTVSPost2010PropOp28
 70
     1
102
RTVSPost2010Prop29
280
     1
102
RTVSPost2010PropOp29
 70
     1
102
RTVSPost2010Prop30
280
     1
102
RTVSPost2010PropOp30
 70
     1
102
RTVSPost2010Prop31
280
     0
102
RTVSPost2010PropOp31
 70
     1
102
RTVSPost2010Prop32
280
     0
102
RTVSPost2010PropOp32
 70
     1
102
RTVSPost2010Prop33
280
     0
102
RTVSPost2010PropOp33
 70
     1
102
RTVSPost2010Prop34
280
     0
102
RTVSPost2010PropOp34
 70
     1
102
RTVSPost2010Prop35
280
     0
102
RTVSPost2010PropOp35
 70
     1
102
RTVSPost2010Prop36
280
     0
102
RTVSPost2010PropOp36
 70
     1
102
RTVSPost2010Prop37
 90
       50
102
RTVSPost2010PropOp37
 70
     1
102
RTVSPost2010Prop38
140
0.0
102
RTVSPost2010PropOp38
 70
     1
102
RTVSPost2010Prop39
140
1.0
102
RTVSPost2010PropOp39
 70
     1
102
RTVSPost2010Prop40
 90
        0
102
RTVSPost2010PropOp40
 70
     1
102
RTVSPost2010Prop41ColorIndex
 90
       18
102
RTVSPost2010Prop41ColorRGB
 90
        0
102
RTVSPost2010PropOp41
 70
     1
102
RTVSPost2010Prop42
 90
       50
102
RTVSPost2010PropOp42
 70
     1
102
RTVSPost2010Prop43
 90
        3
102
RTVSPost2010PropOp43
 70
     1
102
RTVSPost2010Prop44ColorIndex
 90
        5
102
RTVSPost2010Prop44ColorRGB
 90
      255
102
RTVSPost2010PropOp44
 70
     1
102
RTVSPost2010Prop45
280
     0
102
RTVSPost2010PropOp45
 70
     1
102
RTVSPost2010Prop46
 90
       50
102
RTVSPost2010PropOp46
 70
     1
102
RTVSPost2010Prop47
 90
       50
102
RTVSPost2010PropOp47
 70
     1
102
RTVSPost2010Prop48
 90
       50
102
RTVSPost2010PropOp48
 70
     1
102
RTVSPost2010Prop49
280
     0
102
RTVSPost2010PropOp49
 70
     1
102
RTVSPost2010Prop50
 90
       50
102
RTVSPost2010PropOp50
 70
     1
102
RTVSPost2010Prop51ColorIndex
 90
      256
102
RTVSPost2010Prop51ColorRGB
 90
-16777216
102
RTVSPost2010PropOp51
 70
     0
102
RTVSPost2010Prop52
140
1.0
102
RTVSPost2010PropOp52
 70
     0
102
RTVSPost2010Prop53
 90
        2
102
RTVSPost2010PropOp53
 70
     1
102
RTVSPost2010Prop54
  1
strokes_ogs.tif
102
RTVSPost2010PropOp54
 70
     1
102
RTVSPost2010Prop55
280
     0
102
RTVSPost2010PropOp55
 70
     1
102
RTVSPost2010Prop56
140
1.0
102
RTVSPost2010PropOp56
 70
     1
102
RTVSPost2010Prop57
140
1.0
102
RTVSPost2010PropOp57
 70
     1
102
RTVSPropertyOp0
 70
     1
102
RTVSPropertyOp1
 70
     1
102
RTVSPropertyOp2
 70
     1
102
RTVSPropertyOp3
 70
     1
102
RTVSPropertyOp4
 70
     1
102
RTVSPropertyOp5
 70
     1
102
RTVSPropertyOp6
 70
     1
102
RTVSPropertyOp7
 70
     1
102
RTVSPropertyOp8
 70
     1
102
RTVSPropertyOp9
 70
     1
102
RTVSPropertyOp10
 70
     1
102
RTVSPropertyOp11
 70
     1
102
RTVSPropertyOp12
 70
     1
102
RTVSPropertyOp13
 70
     1
102
RTVSPropertyOp14
 70
     1
102
RTVSPropertyOp15
 70
     1
102
RTVSPropertyOp16
 70
     1
102
RTVSPropertyOp17
 70
     1
102
RTVSPropertyOp18
 70
     1
102
RTVSPropertyOp19
 70
     1
102
RTVSPropertyOp20
 70
     1
102
RTVSPropertyOp21
 70
     1
102
RTVSPropertyOp22
 70
     1
102
RTVSPropertyOp23
 70
     1
102
RTVSPropertyOp24
 70
     1
102
RTVSPropertyOp25
 70
     1
102
RTVSPropertyOp26
 70
     1
102
RTVSPropertyOp27
 70
     1
102
RTVSPropertyOp28
 70
     1
102
RTVSPropertyOp29
 70
     1
102
RTVSPropertyOp30
 70
     1
102
RTVSPropertyOp31
 70
     1
102
RTVSPropertyOp32
 70
     1
102
RTVSPropertyOp33
 70
     1
102
RTVSPropertyOp34
 70
     1
102
RTVSPropertyOp35
 70
     1
102
RTVSPropertyOp36
 70
     1
102
RTVSPropertyOp37
 70
     1
102
RTVSPropertyOp38
 70
     1
102
RTVSPropertyOp39
 70
     1
102
RTVSPropertyOp40
 70
     1
102
RTVSPropertyOp41
 70
     1
102
RTVSPropertyOp42
 70
     1
102
RTVSPropertyOp43
 70
     1
102
RTVSPropertyOp44
 70
     1
102
RTVSPropertyOp45
 70
     1
102
RTVSPropertyOp46
 70
     1
102
RTVSPropertyOp47
 70
     1
102
RTVSPropertyOp48
 70
     1
102
RTVSPropertyOp49
 70
     1
102
RTVSPropertyOp50
 70
     1
102
RTVSPropertyOp51
 70
     0
102
RTVSPropertyOp52
 70
     0
102
RTVSPropertyOp53
 70
     1
102
RTVSPropertyOp54
 70
     1
102
RTVSPropertyOp55
 70
     1
102
RTVSPropertyOp56
 70
     1
102
RTVSPropertyOp57
 70
     1
102
RTVSPropertyOp58
 70
     1
102
RTVSPropertyOp59
 70
     1
102
RTVSPropertyOp60
 70
     1
102
RTVSPropertyOp61
 70
     1
102
RTVSPropertyOp62
 70
     1
  0
XRECORD
  5
184
102
{ACAD_REACTORS
330
183
102
}
330
183
100
AcDbXrecord
280
     1
102
RTVSPost2010Prop28
280
     0
102
RTVSPost2010PropOp28
 70
     1
102
RTVSPost2010Prop29
280
     1
102
RTVSPost2010PropOp29
 70
     1
102
RTVSPost2010Prop30
280
     1
102
RTVSPost2010PropOp30
 70
     1
102
RTVSPost2010Prop31
280
     0
102
RTVSPost2010PropOp31
 70
     1
102
RTVSPost2010Prop32
280
     0
102
RTVSPost2010PropOp32
 70
     1
102
RTVSPost2010Prop33
280
     0
102
RTVSPost2010PropOp33
 70
     1
102
RTVSPost2010Prop34
280
     0
102
RTVSPost2010PropOp34
 70
     1
102
RTVSPost2010Prop35
280
     0
102
RTVSPost2010PropOp35
 70
     1
102
RTVSPost2010Prop36
280
     0
102
RTVSPost2010PropOp36
 70
     1
102
RTVSPost2010Prop37
 90
       50
102
RTVSPost2010PropOp37
 70
     1
102
RTVSPost2010Prop38
140
0.0
102
RTVSPost2010PropOp38
 70
     1
102
RTVSPost2010Prop39
140
1.0
102
RTVSPost2010PropOp39
 70
     1
102
RTVSPost2010Prop40
 90
        0
102
RTVSPost2010PropOp40
 70
     1
102
RTVSPost2010Prop41ColorIndex
 90
       18
102
RTVSPost2010Prop41ColorRGB
 90
        0
102
RTVSPost2010PropOp41
 70
     1
102
RTVSPost2010Prop42
 90
       50
102
RTVSPost2010PropOp42
 70
     1
102
RTVSPost2010Prop43
 90
        3
102
RTVSPost2010PropOp43
 70
     1
102
RTVSPost2010Prop44ColorIndex
 90
        5
102
RTVSPost2010Prop44ColorRGB
 90
      255
102
RTVSPost2010PropOp44
 70
     1
102
RTVSPost2010Prop45
280
     0
102
RTVSPost2010PropOp45
 70
     1
102
RTVSPost2010Prop46
 90
       50
102
RTVSPost2010PropOp46
 70
     1
102
RTVSPost2010Prop47
 90
       50
102
RTVSPost2010PropOp47
 70
     1
102
RTVSPost2010Prop48
 90
       50
102
RTVSPost2010PropOp48
 70
     1
102
RTVSPost2010Prop49
280
     0
102
RTVSPost2010PropOp49
 70
     1
102
RTVSPost2010Prop50
 90
       50
102
RTVSPost2010PropOp50
 70
     1
102
RTVSPost2010Prop51ColorIndex
 90
      256
102
RTVSPost2010Prop51ColorRGB
 90
-16777216
102
RTVSPost2010PropOp51
 70
     0
102
RTVSPost2010Prop52
140
1.0
102
RTVSPost2010PropOp52
 70
     0
102
RTVSPost2010Prop53
 90
        2
102
RTVSPost2010PropOp53
 70
     1
102
RTVSPost2010Prop54
  1
strokes_ogs.tif
102
RTVSPost2010PropOp54
 70
     1
102
RTVSPost2010Prop55
280
     0
102
RTVSPost2010PropOp55
 70
     1
102
RTVSPost2010Prop56
140
1.0
102
RTVSPost2010PropOp56
 70
     1
102
RTVSPost2010Prop57
140
1.0
102
RTVSPost2010PropOp57
 70
     1
102
RTVSPropertyOp0
 70
     1
102
RTVSPropertyOp1
 70
     1
102
RTVSPropertyOp2
 70
     1
102
RTVSPropertyOp3
 70
     1
102
RTVSPropertyOp4
 70
     1
102
RTVSPropertyOp5
 70
     1
102
RTVSPropertyOp6
 70
     1
102
RTVSPropertyOp7
 70
     1
102
RTVSPropertyOp8
 70
     1
102
RTVSPropertyOp9
 70
     1
102
RTVSPropertyOp10
 70
     1
102
RTVSPropertyOp11
 70
     1
102
RTVSPropertyOp12
 70
     1
102
RTVSPropertyOp13
 70
     1
102
RTVSPropertyOp14
 70
     1
102
RTVSPropertyOp15
 70
     1
102
RTVSPropertyOp16
 70
     1
102
RTVSPropertyOp17
 70
     1
102
RTVSPropertyOp18
 70
     1
102
RTVSPropertyOp19
 70
     1
102
RTVSPropertyOp20
 70
     1
102
RTVSPropertyOp21
 70
     1
102
RTVSPropertyOp22
 70
     1
102
RTVSPropertyOp23
 70
     1
102
RTVSPropertyOp24
 70
     1
102
RTVSPropertyOp25
 70
     1
102
RTVSPropertyOp26
 70
     1
102
RTVSPropertyOp27
 70
     1
102
RTVSPropertyOp28
 70
     1
102
RTVSPropertyOp29
 70
     1
102
RTVSPropertyOp30
 70
     1
102
RTVSPropertyOp31
 70
     1
102
RTVSPropertyOp32
 70
     1
102
RTVSPropertyOp33
 70
     1
102
RTVSPropertyOp34
 70
     1
102
RTVSPropertyOp35
 70
     1
102
RTVSPropertyOp36
 70
     1
102
RTVSPropertyOp37
 70
     1
102
RTVSPropertyOp38
 70
     1
102
RTVSPropertyOp39
 70
     1
102
RTVSPropertyOp40
 70
     1
102
RTVSPropertyOp41
 70
     1
102
RTVSPropertyOp42
 70
     1
102
RTVSPropertyOp43
 70
     1
102
RTVSPropertyOp44
 70
     1
102
RTVSPropertyOp45
 70
     1
102
RTVSPropertyOp46
 70
     1
102
RTVSPropertyOp47
 70
     1
102
RTVSPropertyOp48
 70
     1
102
RTVSPropertyOp49
 70
     1
102
RTVSPropertyOp50
 70
     1
102
RTVSPropertyOp51
 70
     0
102
RTVSPropertyOp52
 70
     0
102
RTVSPropertyOp53
 70
     1
102
RTVSPropertyOp54
 70
     1
102
RTVSPropertyOp55
 70
     1
102
RTVSPropertyOp56
 70
     1
102
RTVSPropertyOp57
 70
     1
102
RTVSPropertyOp58
 70
     1
102
RTVSPropertyOp59
 70
     1
102
RTVSPropertyOp60
 70
     1
102
RTVSPropertyOp61
 70
     1
102
RTVSPropertyOp62
 70
     1
  0
ENDSEC
  0
EOF
