  0
SECTION
  2
HEADER
  9
$ACADVER
  1
AC1021
  9
$ACADMAINTVER
 70
    50
  9
$DWGCODEPAGE
  3
ANSI_1252
  9
$LASTSAVEDBY
  1
Autodesk
  9
$INSBASE
 10
0.0
 20
0.0
 30
0.0
  9
$EXTMIN
 10
1.000000000000000E+20
 20
1.000000000000000E+20
 30
1.000000000000000E+20
  9
$EXTMAX
 10
-1.000000000000000E+20
 20
-1.000000000000000E+20
 30
-1.000000000000000E+20
  9
$LIMMIN
 10
0.0
 20
0.0
  9
$LIMMAX
 10
420.0
 20
297.0
  9
$ORTHOMODE
 70
     0
  9
$REGENMODE
 70
     1
  9
$FILLMODE
 70
     1
  9
$QTEXTMODE
 70
     0
  9
$MIRRTEXT
 70
     0
  9
$LTSCALE
 40
1.0
  9
$ATTMODE
 70
     1
  9
$TEXTSIZE
 40
2.5
  9
$TRACEWID
 40
1.0
  9
$TEXTSTYLE
  7
Standard
  9
$CLAYER
  8
0
  9
$CELTYPE
  6
ByLayer
  9
$CECOLOR
 62
   256
  9
$CELTSCALE
 40
1.0
  9
$DISPSILH
 70
     0
  9
$DIMSCALE
 40
1.0
  9
$DIMASZ
 40
2.5
  9
$DIMEXO
 40
0.625
  9
$DIMDLI
 40
3.75
  9
$DIMRND
 40
0.0
  9
$DIMDLE
 40
0.0
  9
$DIMEXE
 40
1.25
  9
$DIMTP
 40
0.0
  9
$DIMTM
 40
0.0
  9
$DIMTXT
 40
2.5
  9
$DIMCEN
 40
2.5
  9
$DIMTSZ
 40
0.0
  9
$DIMTOL
 70
     0
  9
$DIMLIM
 70
     0
  9
$DIMTIH
 70
     0
  9
$DIMTOH
 70
     0
  9
$DIMSE1
 70
     0
  9
$DIMSE2
 70
     0
  9
$DIMTAD
 70
     1
  9
$DIMZIN
 70
     8
  9
$DIMBLK
  1

  9
$DIMASO
 70
     1
  9
$DIMSHO
 70
     1
  9
$DIMPOST
  1

  9
$DIMAPOST
  1

  9
$DIMALT
 70
     0
  9
$DIMALTD
 70
     3
  9
$DIMALTF
 40
0.03937007874016
  9
$DIMLFAC
 40
1.0
  9
$DIMTOFL
 70
     1
  9
$DIMTVP
 40
0.0
  9
$DIMTIX
 70
     0
  9
$DIMSOXD
 70
     0
  9
$DIMSAH
 70
     0
  9
$DIMBLK1
  1

  9
$DIMBLK2
  1

  9
$DIMSTYLE
  2
ISO-25
  9
$DIMCLRD
 70
     0
  9
$DIMCLRE
 70
     0
  9
$DIMCLRT
 70
     0
  9
$DIMTFAC
 40
1.0
  9
$DIMGAP
 40
0.625
  9
$DIMJUST
 70
     0
  9
$DIMSD1
 70
     0
  9
$DIMSD2
 70
     0
  9
$DIMTOLJ
 70
     0
  9
$DIMTZIN
 70
     8
  9
$DIMALTZ
 70
     0
  9
$DIMALTTZ
 70
     0
  9
$DIMUPT
 70
     0
  9
$DIMDEC
 70
     2
  9
$DIMTDEC
 70
     2
  9
$DIMALTU
 70
     2
  9
$DIMALTTD
 70
     3
  9
$DIMTXSTY
  7
Standard
  9
$DIMAUNIT
 70
     0
  9
$DIMADEC
 70
     0
  9
$DIMALTRND
 40
0.0
  9
$DIMAZIN
 70
     0
  9
$DIMDSEP
 70
    44
  9
$DIMATFIT
 70
     3
  9
$DIMFRAC
 70
     0
  9
$DIMLDRBLK
  1

  9
$DIMLUNIT
 70
     2
  9
$DIMLWD
 70
    -2
  9
$DIMLWE
 70
    -2
  9
$DIMTMOVE
 70
     0
  9
$DIMFXL
 40
1.0
  9
$DIMFXLON
 70
     0
  9
$DIMJOGANG
 40
0.7853981633974483
  9
$DIMTFILL
 70
     0
  9
$DIMTFILLCLR
 70
     0
  9
$DIMARCSYM
 70
     0
  9
$DIMLTYPE
  6

  9
$DIMLTEX1
  6

  9
$DIMLTEX2
  6

  9
$LUNITS
 70
     2
  9
$LUPREC
 70
     4
  9
$SKETCHINC
 40
1.0
  9
$FILLETRAD
 40
0.0
  9
$AUNITS
 70
     0
  9
$AUPREC
 70
     0
  9
$MENU
  1
.
  9
$ELEVATION
 40
0.0
  9
$PELEVATION
 40
0.0
  9
$THICKNESS
 40
0.0
  9
$LIMCHECK
 70
     0
  9
$CHAMFERA
 40
0.0
  9
$CHAMFERB
 40
0.0
  9
$CHAMFERC
 40
0.0
  9
$CHAMFERD
 40
0.0
  9
$SKPOLY
 70
     0
  9
$TDCREATE
 40
2456309.149747176
  9
$TDUCREATE
 40
2456309.483080509
  9
$TDUPDATE
 40
2456667.078514884
  9
$TDUUPDATE
 40
2456667.411848218
  9
$TDINDWG
 40
0.0000182523
  9
$TDUSRTIMER
 40
0.0000180671
  9
$USRTIMER
 70
     1
  9
$ANGBASE
 50
0.0
  9
$ANGDIR
 70
     0
  9
$PDMODE
 70
     0
  9
$PDSIZE
 40
0.0
  9
$PLINEWID
 40
0.0
  9
$SPLFRAME
 70
     0
  9
$SPLINETYPE
 70
     6
  9
$SPLINESEGS
 70
     8
  9
$HANDSEED
  5
29C
  9
$SURFTAB1
 70
     6
  9
$SURFTAB2
 70
     6
  9
$SURFTYPE
 70
     6
  9
$SURFU
 70
     6
  9
$SURFV
 70
     6
  9
$UCSBASE
  2

  9
$UCSNAME
  2

  9
$UCSORG
 10
0.0
 20
0.0
 30
0.0
  9
$UCSXDIR
 10
1.0
 20
0.0
 30
0.0
  9
$UCSYDIR
 10
0.0
 20
1.0
 30
0.0
  9
$UCSORTHOREF
  2

  9
$UCSORTHOVIEW
 70
     0
  9
$UCSORGTOP
 10
0.0
 20
0.0
 30
0.0
  9
$UCSORGBOTTOM
 10
0.0
 20
0.0
 30
0.0
  9
$UCSORGLEFT
 10
0.0
 20
0.0
 30
0.0
  9
$UCSORGRIGHT
 10
0.0
 20
0.0
 30
0.0
  9
$UCSORGFRONT
 10
0.0
 20
0.0
 30
0.0
  9
$UCSORGBACK
 10
0.0
 20
0.0
 30
0.0
  9
$PUCSBASE
  2

  9
$PUCSNAME
  2

  9
$PUCSORG
 10
0.0
 20
0.0
 30
0.0
  9
$PUCSXDIR
 10
1.0
 20
0.0
 30
0.0
  9
$PUCSYDIR
 10
0.0
 20
1.0
 30
0.0
  9
$PUCSORTHOREF
  2

  9
$PUCSORTHOVIEW
 70
     0
  9
$PUCSORGTOP
 10
0.0
 20
0.0
 30
0.0
  9
$PUCSORGBOTTOM
 10
0.0
 20
0.0
 30
0.0
  9
$PUCSORGLEFT
 10
0.0
 20
0.0
 30
0.0
  9
$PUCSORGRIGHT
 10
0.0
 20
0.0
 30
0.0
  9
$PUCSORGFRONT
 10
0.0
 20
0.0
 30
0.0
  9
$PUCSORGBACK
 10
0.0
 20
0.0
 30
0.0
  9
$USERI1
 70
     0
  9
$USERI2
 70
     0
  9
$USERI3
 70
     0
  9
$USERI4
 70
     0
  9
$USERI5
 70
     0
  9
$USERR1
 40
0.0
  9
$USERR2
 40
0.0
  9
$USERR3
 40
0.0
  9
$USERR4
 40
0.0
  9
$USERR5
 40
0.0
  9
$WORLDVIEW
 70
     1
  9
$SHADEDGE
 70
     3
  9
$SHADEDIF
 70
    70
  9
$TILEMODE
 70
     1
  9
$MAXACTVP
 70
    64
  9
$PINSBASE
 10
0.0
 20
0.0
 30
0.0
  9
$PLIMCHECK
 70
     0
  9
$PEXTMIN
 10
0.0
 20
0.0
 30
0.0
  9
$PEXTMAX
 10
0.0
 20
0.0
 30
0.0
  9
$PLIMMIN
 10
0.0
 20
0.0
  9
$PLIMMAX
 10
12.0
 20
9.0
  9
$UNITMODE
 70
     0
  9
$VISRETAIN
 70
     1
  9
$PLINEGEN
 70
     0
  9
$PSLTSCALE
 70
     1
  9
$TREEDEPTH
 70
  3020
  9
$CMLSTYLE
  2
Standard
  9
$CMLJUST
 70
     0
  9
$CMLSCALE
 40
20.0
  9
$PROXYGRAPHICS
 70
     1
  9
$MEASUREMENT
 70
     1
  9
$CELWEIGHT
370
    -1
  9
$ENDCAPS
280
     0
  9
$JOINSTYLE
280
     0
  9
$LWDISPLAY
290
     0
  9
$INSUNITS
 70
     4
  9
$HYPERLINKBASE
  1

  9
$STYLESHEET
  1

  9
$XEDIT
290
     1
  9
$CEPSNTYPE
380
     0
  9
$PSTYLEMODE
290
     1
  9
$FINGERPRINTGUID
  2
{D36A17C0-B4E2-4527-8874-81943F1C34AC}
  9
$VERSIONGUID
  2
{265A5473-D45D-4B1C-ABB7-7FF2E3BD06BB}
  9
$EXTNAMES
290
     1
  9
$PSVPSCALE
 40
0.0
  9
$OLESTARTUP
290
     0
  9
$SORTENTS
280
   127
  9
$INDEXCTL
280
     0
  9
$HIDETEXT
280
     1
  9
$XCLIPFRAME
290
     0
  9
$HALOGAP
280
     0
  9
$OBSCOLOR
 70
   257
  9
$OBSLTYPE
280
     0
  9
$INTERSECTIONDISPLAY
280
     0
  9
$INTERSECTIONCOLOR
 70
   257
  9
$DIMASSOC
280
     2
  9
$PROJECTNAME
  1

  9
$CAMERADISPLAY
290
     0
  9
$LENSLENGTH
 40
50.0
  9
$CAMERAHEIGHT
 40
0.0
  9
$STEPSPERSEC
 40
2.0
  9
$STEPSIZE
 40
6.0
  9
$3DDWFPREC
 40
2.0
  9
$PSOLWIDTH
 40
5.0
  9
$PSOLHEIGHT
 40
80.0
  9
$LOFTANG1
 40
1.570796326794896
  9
$LOFTANG2
 40
1.570796326794896
  9
$LOFTMAG1
 40
0.0
  9
$LOFTMAG2
 40
0.0
  9
$LOFTPARAM
 70
     7
  9
$LOFTNORMALS
280
     1
  9
$LATITUDE
 40
37.795
  9
$LONGITUDE
 40
-122.394
  9
$NORTHDIRECTION
 40
0.0
  9
$TIMEZONE
 70
 -8000
  9
$LIGHTGLYPHDISPLAY
280
     1
  9
$TILEMODELIGHTSYNCH
280
     1
  9
$CMATERIAL
347
EC
  9
$SOLIDHIST
280
     0
  9
$SHOWHIST
280
     1
  9
$DWFFRAME
280
     2
  9
$DGNFRAME
280
     0
  9
$REALWORLDSCALE
290
     1
  9
$INTERFERECOLOR
 62
     1
  9
$INTERFEREOBJVS
345
F9
  9
$INTERFEREVPVS
346
F6
  9
$CSHADOW
280
     0
  9
$SHADOWPLANELOCATION
 40
0.0
  0
ENDSEC
  0
SECTION
  2
CLASSES
  0
CLASS
  1
ACDBDICTIONARYWDFLT
  2
AcDbDictionaryWithDefault
  3
ObjectDBX Classes
 90
        0
 91
        1
280
     0
281
     0
  0
CLASS
  1
ACDBPLACEHOLDER
  2
AcDbPlaceHolder
  3
ObjectDBX Classes
 90
        0
 91
        1
280
     0
281
     0
  0
CLASS
  1
LAYOUT
  2
AcDbLayout
  3
ObjectDBX Classes
 90
        0
 91
        3
280
     0
281
     0
  0
CLASS
  1
DICTIONARYVAR
  2
AcDbDictionaryVar
  3
ObjectDBX Classes
 90
        0
 91
       10
280
     0
281
     0
  0
CLASS
  1
TABLESTYLE
  2
AcDbTableStyle
  3
ObjectDBX Classes
 90
     4095
 91
        1
280
     0
281
     0
  0
CLASS
  1
MATERIAL
  2
AcDbMaterial
  3
ObjectDBX Classes
 90
     1153
 91
        3
280
     0
281
     0
  0
CLASS
  1
VISUALSTYLE
  2
AcDbVisualStyle
  3
ObjectDBX Classes
 90
     4095
 91
       24
280
     0
281
     0
  0
CLASS
  1
SCALE
  2
AcDbScale
  3
ObjectDBX Classes
 90
     1153
 91
       17
280
     0
281
     0
  0
CLASS
  1
MLEADERSTYLE
  2
AcDbMLeaderStyle
  3
ACDB_MLEADERSTYLE_CLASS
 90
     4095
 91
        2
280
     0
281
     0
  0
CLASS
  1
CELLSTYLEMAP
  2
AcDbCellStyleMap
  3
ObjectDBX Classes
 90
     1152
 91
        1
280
     0
281
     0
  0
CLASS
  1
EXACXREFPANELOBJECT
  2
ExAcXREFPanelObject
  3
EXAC_ESW
 90
     1025
 91
        0
280
     0
281
     0
  0
CLASS
  1
NPOCOLLECTION
  2
AcDbImpNonPersistentObjectsCollection
  3
ObjectDBX Classes
 90
     1153
 91
        0
280
     0
281
     0
  0
CLASS
  1
LAYER_INDEX
  2
AcDbLayerIndex
  3
ObjectDBX Classes
 90
        0
 91
        0
280
     0
281
     0
  0
CLASS
  1
SPATIAL_INDEX
  2
AcDbSpatialIndex
  3
ObjectDBX Classes
 90
        0
 91
        0
280
     0
281
     0
  0
CLASS
  1
IDBUFFER
  2
AcDbIdBuffer
  3
ObjectDBX Classes
 90
        0
 91
        0
280
     0
281
     0
  0
CLASS
  1
ACDBSECTIONVIEWSTYLE
  2
AcDbSectionViewStyle
  3
ObjectDBX Classes
 90
     1025
 91
        1
280
     0
281
     0
  0
CLASS
  1
ACDBDETAILVIEWSTYLE
  2
AcDbDetailViewStyle
  3
ObjectDBX Classes
 90
     1025
 91
        1
280
     0
281
     0
  0
ENDSEC
  0
SECTION
  2
TABLES
  0
TABLE
  2
VPORT
  5
8
330
0
100
AcDbSymbolTable
 70
     1
  0
VPORT
  5
EA
330
8
100
AcDbSymbolTableRecord
100
AcDbViewportTableRecord
  2
*Active
 70
     0
 10
0.0
 20
0.0
 11
1.0
 21
1.0
 12
2630.048781668382
 22
1440.684066268786
 13
0.0
 23
0.0
 14
10.0
 24
10.0
 15
10.0
 25
10.0
 16
0.0
 26
0.0
 36
1.0
 17
0.0
 27
0.0
 37
0.0
 40
2653.730076586097
 41
1.765478424015009
 42
50.0
 43
0.0
 44
0.0
 50
0.0
 51
0.0
 71
     0
 72
  1000
 73
     1
 74
     3
 75
     0
 76
     1
 77
     0
 78
     0
281
     0
 65
     1
110
0.0
120
0.0
130
0.0
111
1.0
121
0.0
131
0.0
112
0.0
122
1.0
132
0.0
 79
     0
146
0.0
348
F5
 60
     3
 61
     5
292
     1
282
     1
141
0.0
142
0.0
 63
   250
421
  3355443
1001
ACAD_NAV_VCDISPLAY
1070
     3
  0
ENDTAB
  0
TABLE
  2
LTYPE
  5
5
330
0
100
AcDbSymbolTable
 70
     1
  0
LTYPE
  5
14
330
5
100
AcDbSymbolTableRecord
100
AcDbLinetypeTableRecord
  2
ByBlock
 70
     0
  3

 72
    65
 73
     0
 40
0.0
  0
LTYPE
  5
15
330
5
100
AcDbSymbolTableRecord
100
AcDbLinetypeTableRecord
  2
ByLayer
 70
     0
  3

 72
    65
 73
     0
 40
0.0
  0
LTYPE
  5
16
330
5
100
AcDbSymbolTableRecord
100
AcDbLinetypeTableRecord
  2
Continuous
 70
     0
  3
Solid line
 72
    65
 73
     0
 40
0.0
  0
ENDTAB
  0
TABLE
  2
LAYER
  5
2
102
{ACAD_XDICTIONARY
360
1FF
102
}
330
0
100
AcDbSymbolTable
 70
     2
  0
LAYER
  5
10
102
{ACAD_XDICTIONARY
360
13C
102
}
330
2
100
AcDbSymbolTableRecord
100
AcDbLayerTableRecord
  2
0
 70
     0
 62
     7
  6
Continuous
370
    -3
390
F
347
EE
  0
LAYER
  5
249
330
2
100
AcDbSymbolTableRecord
100
AcDbLayerTableRecord
  2
Vector Layer 1
 70
     0
 62
     7
  6
Continuous
370
    30
390
F
347
EE
  0
ENDTAB
  0
TABLE
  2
STYLE
  5
3
330
0
100
AcDbSymbolTable
 70
     2
  0
STYLE
  5
11
330
3
100
AcDbSymbolTableRecord
100
AcDbTextStyleTableRecord
  2
Standard
 70
     0
 40
0.0
 41
1.0
 50
0.0
 71
     0
 42
2.5
  3
arial.ttf
  4

1001
ACAD
1000
Arial
1071
       34
  0
STYLE
  5
132
330
3
100
AcDbSymbolTableRecord
100
AcDbTextStyleTableRecord
  2
Annotative
 70
     0
 40
0.0
 41
1.0
 50
0.0
 71
     0
 42
2.5
  3
arial.ttf
  4

1001
AcadAnnotative
1000
AnnotativeData
1002
{
1070
     1
1070
     1
1002
}
1001
ACAD
1000
Arial
1071
       34
  0
ENDTAB
  0
TABLE
  2
VIEW
  5
6
330
0
100
AcDbSymbolTable
 70
     0
  0
ENDTAB
  0
TABLE
  2
UCS
  5
7
330
0
100
AcDbSymbolTable
 70
     0
  0
ENDTAB
  0
TABLE
  2
APPID
  5
9
330
0
100
AcDbSymbolTable
 70
     8
  0
APPID
  5
12
330
9
100
AcDbSymbolTableRecord
100
AcDbRegAppTableRecord
  2
ACAD
 70
     0
  0
APPID
  5
9E
330
9
100
AcDbSymbolTableRecord
100
AcDbRegAppTableRecord
  2
ACAD_PSEXT
 70
     0
  0
APPID
  5
133
330
9
100
AcDbSymbolTableRecord
100
AcDbRegAppTableRecord
  2
AcadAnnoPO
 70
     0
  0
APPID
  5
134
330
9
100
AcDbSymbolTableRecord
100
AcDbRegAppTableRecord
  2
AcadAnnotative
 70
     0
  0
APPID
  5
135
330
9
100
AcDbSymbolTableRecord
100
AcDbRegAppTableRecord
  2
ACAD_DSTYLE_DIMJAG
 70
     0
  0
APPID
  5
136
330
9
100
AcDbSymbolTableRecord
100
AcDbRegAppTableRecord
  2
ACAD_DSTYLE_DIMTALN
 70
     0
  0
APPID
  5
165
330
9
100
AcDbSymbolTableRecord
100
AcDbRegAppTableRecord
  2
ACAD_MLEADERVER
 70
     0
  0
APPID
  5
217
330
9
100
AcDbSymbolTableRecord
100
AcDbRegAppTableRecord
  2
ACAD_NAV_VCDISPLAY
 70
     0
  0
ENDTAB
  0
TABLE
  2
DIMSTYLE
  5
A
330
0
100
AcDbSymbolTable
 70
     3
100
AcDbDimStyleTable
 71
     2
340
27
340
137
  0
DIMSTYLE
105
1B0
330
A
100
AcDbSymbolTableRecord
100
AcDbDimStyleTableRecord
  2
Standard
 70
     0
340
11
  0
DIMSTYLE
105
137
330
A
100
AcDbSymbolTableRecord
100
AcDbDimStyleTableRecord
  2
Annotative
 70
     0
 40
0.0
 41
2.5
 42
0.625
 43
3.75
 44
1.25
 73
     0
 74
     0
 77
     1
 78
     8
140
2.5
141
2.5
143
0.03937007874016
147
0.625
171
     3
172
     1
271
     2
272
     2
274
     3
278
    44
283
     0
284
     8
340
11
1001
AcadAnnotative
1000
AnnotativeData
1002
{
1070
     1
1070
     1
1002
}
1001
ACAD_DSTYLE_DIMJAG
1070
   388
1040
1.5
1001
ACAD_DSTYLE_DIMTALN
1070
   392
1070
     0
  0
DIMSTYLE
105
27
330
A
100
AcDbSymbolTableRecord
100
AcDbDimStyleTableRecord
  2
ISO-25
 70
     0
 41
2.5
 42
0.625
 43
3.75
 44
1.25
 73
     0
 74
     0
 77
     1
 78
     8
140
2.5
141
2.5
143
0.03937007874016
147
0.625
171
     3
172
     1
271
     2
272
     2
274
     3
278
    44
283
     0
284
     8
340
11
  0
ENDTAB
  0
TABLE
  2
BLOCK_RECORD
  5
1
330
0
100
AcDbSymbolTable
 70
     1
  0
BLOCK_RECORD
  5
1F
102
{ACAD_XDICTIONARY
360
1CE
102
}
330
1
100
AcDbSymbolTableRecord
100
AcDbBlockTableRecord
  2
*Model_Space
340
22
 70
     0
280
     1
281
     0
  0
BLOCK_RECORD
  5
D2
330
1
100
AcDbSymbolTableRecord
100
AcDbBlockTableRecord
  2
*Paper_Space
340
D3
 70
     0
280
     1
281
     0
  0
BLOCK_RECORD
  5
D6
330
1
100
AcDbSymbolTableRecord
100
AcDbBlockTableRecord
  2
*Paper_Space0
340
D7
 70
     0
280
     1
281
     0
  0
ENDTAB
  0
ENDSEC
  0
SECTION
  2
BLOCKS
  0
BLOCK
  5
20
330
1F
100
AcDbEntity
  8
0
100
AcDbBlockBegin
  2
*Model_Space
 70
     0
 10
0.0
 20
0.0
 30
0.0
  3
*Model_Space
  1

  0
ENDBLK
  5
21
330
1F
100
AcDbEntity
  8
0
100
AcDbBlockEnd
  0
BLOCK
  5
D4
330
D2
100
AcDbEntity
 67
     1
  8
0
100
AcDbBlockBegin
  2
*Paper_Space
 70
     0
 10
0.0
 20
0.0
 30
0.0
  3
*Paper_Space
  1

  0
ENDBLK
  5
D5
330
D2
100
AcDbEntity
 67
     1
  8
0
100
AcDbBlockEnd
  0
BLOCK
  5
D8
330
D6
100
AcDbEntity
 67
     1
  8
0
100
AcDbBlockBegin
  2
*Paper_Space0
 70
     0
 10
0.0
 20
0.0
 30
0.0
  3
*Paper_Space0
  1

  0
ENDBLK
  5
D9
330
D6
100
AcDbEntity
 67
     1
  8
0
100
AcDbBlockEnd
  0
ENDSEC
  0
SECTION
  2
ENTITIES
  0
LWPOLYLINE
  5
24A
330
1F
100
AcDbEntity
  8
Vector Layer 1
 62
    18
420
        0
370
    30
100
AcDbPolyline
 90
      812
 70
     0
 43
0.0
 10
72.88922405495539
 20
0.0376567951291755
 10
72.73493611465048
 20
0.1531308943238951
 10
72.58025319949237
 20
0.2684658121699044
 10
72.42519654686052
 20
0.3836734125352254
 10
72.26978739413436
 20
0.4987655592878799
 10
72.11404697869332
 20
0.6137541162958899
 10
71.95799653791687
 20
0.7286509474272772
 10
71.80165730918445
 20
0.8434679165500638
 10
71.64505052987549
 20
0.9582168875322716
 10
71.48819743736943
 20
1.072909724241922
 10
71.33111926904574
 20
1.187558290547038
 10
71.17383726228384
 20
1.302174450315641
 10
71.01637265446317
 20
1.416770067415753
 10
70.85874668296319
 20
1.531357005715396
 10
70.70098058516332
 20
1.645947129082591
 10
70.54309559844302
 20
1.760552301385361
 10
70.38511296018173
 20
1.875184386491727
 10
70.22705390775889
 20
1.989855248269712
 10
70.06893967855394
 20
2.104576750587337
 10
69.91079150994633
 20
2.219360757312625
 10
69.75263063931551
 20
2.334219132313596
 10
69.59447830404091
 20
2.449163739458274
 10
69.43635574150197
 20
2.564206442614679
 10
69.27828418907814
 20
2.679359105650835
 10
69.12028488414886
 20
2.794633592434762
 10
68.96237906409357
 20
2.910041766834483
 10
68.80458796629172
 20
3.025595492718019
 10
68.64693282812275
 20
3.141306633953393
 10
68.48943488696611
 20
3.257187054408627
 10
68.33211538020123
 20
3.373248617951742
 10
68.17499554520757
 20
3.48950318845076
 10
68.01809661936456
 20
3.605962629773704
 10
67.86143984005163
 20
3.722638805788594
 10
67.70504644464825
 20
3.839543580363454
 10
67.54893767053385
 20
3.956688817366305
 10
67.39313475508787
 20
4.074086380665168
 10
67.23765893568975
 20
4.191748134128066
 10
67.08253144971894
 20
4.309685941623021
 10
66.92777353455489
 20
4.427911667018054
 10
66.77340642757703
 20
4.546437174181188
 10
66.61945136616481
 20
4.665274326980444
 10
66.46592958769767
 20
4.784434989283845
 10
66.31286232955506
 20
4.903931024959412
 10
66.16027082911641
 20
5.023774297875167
 10
66.00817632376117
 20
5.143976671899133
 10
65.85660005086879
 20
5.26455001089933
 10
65.7055632478187
 20
5.385506178743781
 10
65.55508715199035
 20
5.506857039300507
 10
65.40519300076318
 20
5.628614456437531
 10
65.25590203151662
 20
5.750790294022875
 10
65.10723548163014
 20
5.873396415924561
 10
65.10723548163008
 20
5.873396415924562
 10
64.95789333312238
 20
5.997182907745843
 10
64.80849717643199
 20
6.121297947662394
 10
64.65906238893601
 20
6.245741905218565
 10
64.50960434801157
 20
6.370515149958702
 10
64.3601384310358
 20
6.495618051427152
 10
64.21068001538582
 20
6.621050979168264
 10
64.06124447843872
 20
6.746814302726384
 10
63.91184719757164
 20
6.87290839164586
 10
63.76250355016171
 20
6.99933361547104
 10
63.61322891358603
 20
7.126090343746271
 10
63.46403866522172
 20
7.253178946015899
 10
63.31494818244591
 20
7.380599791824273
 10
63.16597284263571
 20
7.508353250715741
 10
63.01712802316824
 20
7.63643969223465
 10
62.86842910142063
 20
7.764859485925346
 10
62.71989145476998
 20
7.893613001332178
 10
62.57153046059342
 20
8.022700607999492
 10
62.42336149626807
 20
8.152122675471638
 10
62.27539993917105
 20
8.281879573292961
 10
62.12766116667948
 20
8.411971671007808
 10
61.98016055617047
 20
8.542399338160528
 10
61.83291348502115
 20
8.673162944295468
 10
61.68593533060863
 20
8.804262858956976
 10
61.53924147031003
 20
8.935699451689398
 10
61.39284728150247
 20
9.067473092037083
 10
61.24676814156308
 20
9.199584149544378
 10
61.10101942786897
 20
9.33203299375563
 10
60.95561651779725
 20
9.464819994215186
 10
60.81057478872505
 20
9.597945520467394
 10
60.66590961802949
 20
9.731409942056602
 10
60.52163638308769
 20
9.865213628527156
 10
60.37777046127676
 20
9.999356949423404
 10
60.23432722997384
 20
10.13384027428969
 10
60.09132206655602
 20
10.26866397267037
 10
59.94877034840043
 20
10.40382841410979
 10
59.80668745288419
 20
10.53933396815229
 10
59.66508875738443
 20
10.67518100434222
 10
59.52398963927826
 20
10.81136989222393
 10
59.38340547594279
 20
10.94790100134177
 10
59.24335164475515
 20
11.08477470124007
 10
59.10384352309246
 20
11.22199136146321
 10
58.96489648833183
 20
11.35955135155551
 10
58.82652591785038
 20
11.49745504106132
 10
58.68874718902525
 20
11.635702799525
 10
58.55157567923354
 20
11.77429499649089
 10
58.41502676585237
 20
11.91323200150334
 10
58.27911582625887
 20
12.05251418410669
 10
58.14385823783013
 20
12.1921419138453
 10
58.00926937794331
 20
12.33211556026351
 10
57.8753646239755
 20
12.47243549290566
 10
57.87536462397552
 20
12.47243549290567
 10
57.74444756336169
 20
12.61068912096274
 10
57.61391775433795
 20
12.74959952885869
 10
57.48377279761468
 20
12.88915125680636
 10
57.35401029390231
 20
13.02932884501856
 10
57.22462784391122
 20
13.17011683370812
 10
57.09562304835184
 20
13.31149976308786
 10
56.96699350793457
 20
13.4534621733706
 10
56.8387368233698
 20
13.59598860476918
 10
56.71085059536797
 20
13.7390635974964
 10
56.58333242463946
 20
13.8826716917651
 10
56.45617991189468
 20
14.02679742778809
 10
56.32939065784405
 20
14.17142534577821
 10
56.20296226319796
 20
14.31653998594827
 10
56.07689232866682
 20
14.46212588851109
 10
55.95117845496105
 20
14.60816759367951
 10
55.82581824279103
 20
14.75464964166634
 10
55.7008092928672
 20
14.90155657268441
 10
55.57614920589994
 20
15.04887292694654
 10
55.45183558259966
 20
15.19658324466555
 10
55.32786602367679
 20
15.34467206605427
 10
55.20423812984169
 20
15.49312393132552
 10
55.08094950180482
 20
15.64192338069213
 10
54.95799774027656
 20
15.79105495436691
 10
54.8353804459673
 20
15.94050319256269
 10
54.71309521958748
 20
16.0902526354923
 10
54.59113966184749
 20
16.24028782336855
 10
54.46951137345774
 20
16.39059329640427
 10
54.34820795512862
 20
16.54115359481229
 10
54.22722700757056
 20
16.69195325880543
 10
54.10656613149395
 20
16.8429768285965
 10
53.9862229276092
 20
16.99420884439834
 10
53.86619499662673
 20
17.14563384642376
 10
53.74647993925693
 20
17.2972363748856
 10
53.62707535621021
 20
17.44900096999667
 10
53.50797884819698
 20
17.60091217196979
 10
53.38918801592765
 20
17.7529545210178
 10
53.27070046011261
 20
17.90511255735351
 10
53.15251378146228
 20
18.05737082118975
 10
53.03462558068708
 20
18.20971385273933
 10
52.91703345849739
 20
18.3621261922151
 10
52.79973501560363
 20
18.51459237982985
 10
52.68272785271619
 20
18.66709695579643
 10
52.56600957054549
 20
18.81962446032765
 10
52.44957776980195
 20
18.97215943363634
 10
52.33343005119595
 20
19.12468641593531
 10
52.21756401543792
 20
19.27718994743741
 10
52.10197726323825
 20
19.42965456835543
 10
51.98666739530736
 20
19.58206481890222
 10
51.87163201235564
 20
19.73440523929059
 10
51.75686871509351
 20
19.88666036973336
 10
51.64237510423137
 20
20.03881475044337
 10
51.64237510423138
 20
20.03881475044337
 10
51.52271991975229
 20
20.1985605753479
 10
51.40349999864962
 20
20.35891001971204
 10
51.2847030629014
 20
20.51984187888591
 10
51.16631683448564
 20
20.68133494821964
 10
51.04832903538034
 20
20.84336802306334
 10
50.93072738756351
 20
21.00591989876714
 10
50.81349961301317
 20
21.16896937068116
 10
50.69663343370734
 20
21.33249523415553
 10
50.58011657162403
 20
21.49647628454038
 10
50.46393674874124
 20
21.66089131718581
 10
50.348081687037
 20
21.82571912744196
 10
50.2325391084893
 20
21.99093851065894
 10
50.11729673507617
 20
22.15652826218688
 10
50.00234228877562
 20
22.32246717737591
 10
49.88766349156565
 20
22.48873405157616
 10
49.77324806542429
 20
22.65530768013773
 10
49.65908373232954
 20
22.82216685841075
 10
49.54515821425942
 20
22.98929038174534
 10
49.43145923319193
 20
23.15665704549164
 10
49.3179745111051
 20
23.32424564499977
 10
49.20469176997693
 20
23.49203497561983
 10
49.09159873178544
 20
23.66000383270197
 10
48.97868311850864
 20
23.8281310115963
 10
48.86593265212454
 20
23.99639530765294
 10
48.75333505461115
 20
24.16477551622202
 10
48.64087804794649
 20
24.33325043265366
 10
48.52854935410856
 20
24.50179885229799
 10
48.41633669507539
 20
24.67039957050511
 10
48.30422779282498
 20
24.83903138262518
 10
48.19221036933535
 20
25.00767308400829
 10
48.08027214658451
 20
25.17630347000459
 10
47.96840084655046
 20
25.34490133596417
 10
47.85658419121122
 20
25.51344547723719
 10
47.74480990254482
 20
25.68191468917375
 10
47.63306570252925
 20
25.85028776712397
 10
47.52133931314253
 20
26.01854350643799
 10
47.40961845636268
 20
26.18666070246592
 10
47.2978908541677
 20
26.35461815055789
 10
47.18614422853561
 20
26.52239464606402
 10
47.07436630144441
 20
26.68996898433443
 10
46.96254479487214
 20
26.85731996071925
 10
46.85066743079679
 20
27.0244263705686
 10
46.73872193119637
 20
27.1912670092326
 10
46.6266960180489
 20
27.35782067206138
 10
46.51457741333239
 20
27.52406615440505
 10
46.40235383902486
 20
27.68998225161375
 10
46.29001301710431
 20
27.85554775903759
 10
46.17754266954877
 20
28.02074147202671
 10
46.06493051833624
 20
28.18554218593121
 10
46.06493051833624
 20
28.1855421859312
 10
45.94960616727673
 20
28.01757764919933
 10
45.83442712158731
 20
27.84920469402193
 10
45.7193804562716
 20
27.68044584142611
 10
45.60445324633318
 20
27.51132361243898
 10
45.48963256677569
 20
27.34186052808765
 10
45.37490549260271
 20
27.1720791093992
 10
45.26025909881787
 20
27.00200187740077
 10
45.14568046042476
 20
26.83165135311945
 10
45.031156652427
 20
26.66105005758234
 10
44.91667474982818
 20
26.49022051181656
 10
44.80222182763195
 20
26.3191852368492
 10
44.68778496084186
 20
26.14796675370739
 10
44.57335122446156
 20
25.97658758341822
 10
44.45890769349466
 20
25.8050702470088
 10
44.34444144294474
 20
25.63343726550624
 10
44.22993954781542
 20
25.46171115993763
 10
44.11538908311032
 20
25.2899144513301
 10
44.00077712383303
 20
25.11806966071074
 10
43.88609074498718
 20
24.94619930910667
 10
43.77131702157635
 20
24.77432591754498
 10
43.65644302860416
 20
24.60247200705279
 10
43.54145584107423
 20
24.4306600986572
 10
43.42634253399015
 20
24.25891271338531
 10
43.31109018235554
 20
24.08725237226424
 10
43.19568586117401
 20
23.91570159632109
 10
43.08011664544916
 20
23.74428290658296
 10
42.9643696101846
 20
23.57301882407697
 10
42.84843183038392
 20
23.40193186983022
 10
42.73229038105077
 20
23.23104456486981
 10
42.61593233718873
 20
23.06037943022285
 10
42.49934477380141
 20
22.88995898691646
 10
42.38251476589241
 20
22.71980575597773
 10
42.26542938846536
 20
22.54994225843377
 10
42.14807571652385
 20
22.38039101531168
 10
42.0304408250715
 20
22.21117454763859
 10
41.91251178911191
 20
22.04231537644158
 10
41.79427568364868
 20
21.87383602274776
 10
41.67571958368544
 20
21.70575900758425
 10
41.55683056422578
 20
21.53810685197816
 10
41.43759570027332
 20
21.37090207695657
 10
41.31800206683165
 20
21.20416720354661
 10
41.1980367389044
 20
21.03792475277538
 10
41.07768679149517
 20
20.87219724566998
 10
40.95693929960756
 20
20.70700720325752
 10
40.83578133824518
 20
20.54237714656511
 10
40.71419998241164
 20
20.37832959661986
 10
40.59218230711056
 20
20.21488707444886
 10
40.46971538734554
 20
20.05207210107923
 10
40.46971538734551
 20
20.05207210107923
 10
40.35405449941868
 20
19.89900340309604
 10
40.23813793515384
 20
19.74582533559363
 10
40.12196279834616
 20
19.59255344419624
 10
40.00552619279079
 20
19.43920327452812
 10
39.88882522228291
 20
19.2857903722135
 10
39.77185699061765
 20
19.13233028287665
 10
39.65461860159019
 20
18.97883855214179
 10
39.53710715899568
 20
18.82533072563318
 10
39.41931976662928
 20
18.67182234897506
 10
39.30125352828616
 20
18.51832896779169
 10
39.18290554776146
 20
18.36486612770729
 10
39.06427292885035
 20
18.21144937434613
 10
38.94535277534799
 20
18.05809425333243
 10
38.82614219104954
 20
17.90481631029045
 10
38.70663827975016
 20
17.75163109084444
 10
38.586838145245
 20
17.59855414061863
 10
38.46673889132924
 20
17.44560100523728
 10
38.34633762179802
 20
17.29278723032463
 10
38.2256314404465
 20
17.14012836150493
 10
38.10461745106985
 20
16.98763994440241
 10
37.98329275746322
 20
16.83533752464132
 10
37.86165446342179
 20
16.68323664784592
 10
37.73969967274069
 20
16.53135285964044
 10
37.61742548921509
 20
16.37970170564913
 10
37.49482901664016
 20
16.22829873149624
 10
37.37190735881105
 20
16.077159482806
 10
37.24865761952292
 20
15.92629950520268
 10
37.12507690257093
 20
15.7757343443105
 10
37.00116231175023
 20
15.62547954575372
 10
36.876910950856
 20
15.47555065515658
 10
36.75231992368339
 20
15.32596321814333
 10
36.62738633402755
 20
15.17673278033821
 10
36.50210728568365
 20
15.02787488736547
 10
36.37647988244685
 20
14.87940508484935
 10
36.25050122811229
 20
14.7313389184141
 10
36.12416842647516
 20
14.58369193368396
 10
35.9974785813306
 20
14.43647967628317
 10
35.87042879647377
 20
14.28971769183599
 10
35.74301617569983
 20
14.14342152596666
 10
35.61523782280395
 20
13.99760672429943
 10
35.48709084158128
 20
13.85228883245853
 10
35.35857233582698
 20
13.70748339606821
 10
35.22967940933621
 20
13.56320596075273
 10
35.10040916590412
 20
13.41947207213632
 10
34.97075870932589
 20
13.27629727584322
 10
34.84072514339667
 20
13.1336971174977
 10
34.71030557191161
 20
12.99168714272398
 10
34.57949709866588
 20
12.85028289714631
 10
34.44829682745464
 20
12.70949992638895
 10
34.31670186207305
 20
12.56935377607613
 10
34.18470930631625
 20
12.42985999183211
 10
34.05231626397942
 20
12.29103411928112
 10
34.05231626397944
 20
12.29103411928113
 10
33.92289757205498
 20
12.15639932383689
 10
33.79281189292381
 20
12.02212632372528
 10
33.66207449597704
 20
11.88821292640574
 10
33.53070065060573
 20
11.75465693933771
 10
33.39870562620095
 20
11.62145616998063
 10
33.2661046921538
 20
11.48860842579393
 10
33.13291311785537
 20
11.35611151423706
 10
32.99914617269671
 20
11.22396324276945
 10
32.86481912606893
 20
11.09216141885055
 10
32.72994724736309
 20
10.96070384993979
 10
32.59454580597028
 20
10.82958834349661
 10
32.45863007128159
 20
10.69881270698044
 10
32.32221531268809
 20
10.56837474785075
 10
32.18531679958085
 20
10.43827227356695
 10
32.04794980135098
 20
10.30850309158849
 10
31.91012958738953
 20
10.17906500937481
 10
31.7718714270876
 20
10.04995583438534
 10
31.63319058983626
 20
9.921173374079536
 10
31.49410234502661
 20
9.792715435916823
 10
31.35462196204971
 20
9.664579827356647
 10
31.21476471029664
 20
9.536764355858444
 10
31.0745458591585
 20
9.409266828881655
 10
30.93398067802636
 20
9.282085053885717
 10
30.7930844362913
 20
9.155216838330071
 10
30.6518724033444
 20
9.028659989674157
 10
30.51035984857674
 20
8.902412315377413
 10
30.3685620413794
 20
8.776471622899277
 10
30.22649425114347
 20
8.650835719699191
 10
30.08417174726003
 20
8.525502413236592
 10
29.94160979912015
 20
8.400469510970919
 10
29.79882367611491
 20
8.275734820361613
 10
29.6558286476354
 20
8.151296148868112
 10
29.5126399830727
 20
8.027151303949857
 10
29.3692729518179
 20
7.903298093066284
 10
29.22574282326206
 20
7.779734323676835
 10
29.08206486679628
 20
7.656457803240948
 10
28.93825435181162
 20
7.533466339218062
 10
28.79432654769918
 20
7.410757739067617
 10
28.65029672385002
 20
7.288329810249051
 10
28.50618014965525
 20
7.166180360221805
 10
28.36199209450593
 20
7.044307196445316
 10
28.21774782779315
 20
6.922708126379025
 10
28.07346261890799
 20
6.80138095748237
 10
27.92915173724152
 20
6.680323497214791
 10
27.78483045218483
 20
6.559533553035727
 10
27.640514033129
 20
6.439008932404617
 10
27.49621774946511
 20
6.318747442780901
 10
27.35195687058424
 20
6.198746891624018
 10
27.20774666587748
 20
6.079005086393406
 10
27.0636024047359
 20
5.959519834548506
 10
26.91953935655057
 20
5.840288943548755
 10
26.7755727907126
 20
5.721310220853594
 10
26.77557279071261
 20
5.721310220853593
 10
26.62195655060535
 20
5.594928837525939
 10
26.4676971645022
 20
5.468966098140453
 10
26.3128180840404
 20
5.343409897701094
 10
26.15734276085715
 20
5.218248131211819
 10
26.00129464658969
 20
5.093468693676587
 10
25.84469719287524
 20
4.969059480099359
 10
25.68757385135103
 20
4.845008385484091
 10
25.52994807365429
 20
4.721303304834744
 10
25.37184331142223
 20
4.597932133155276
 10
25.21328301629207
 20
4.474882765449645
 10
25.05429063990106
 20
4.352143096721812
 10
24.89488963388641
 20
4.229701021975734
 10
24.73510344988534
 20
4.107544436215371
 10
24.57495553953509
 20
3.98566123444468
 10
24.41446935447286
 20
3.864039311667622
 10
24.2536683463359
 20
3.742666562888155
 10
24.09257596676142
 20
3.621530883110237
 10
23.93121566738666
 20
3.500620167337828
 10
23.76961089984882
 20
3.379922310574886
 10
23.60778511578514
 20
3.259425207825371
 10
23.44576176683285
 20
3.139116754093241
 10
23.28356430462917
 20
3.018984844382455
 10
23.12121618081132
 20
2.899017373696971
 10
22.95874084701652
 20
2.779202237040749
 10
22.79616175488201
 20
2.659527329417748
 10
22.63350235604501
 20
2.539980545831926
 10
22.47078610214273
 20
2.420549781287242
 10
22.30803644481242
 20
2.301222930787655
 10
22.14527683569128
 20
2.181987889337123
 10
21.98253072641656
 20
2.062832551939607
 10
21.81982156862546
 20
1.943744813599064
 10
21.65717281395522
 20
1.824712569319453
 10
21.49460791404306
 20
1.705723714104733
 10
21.3321503205262
 20
1.586766142958864
 10
21.16982348504188
 20
1.467827750885803
 10
21.00765085922731
 20
1.348896432889509
 10
20.84565589471972
 20
1.229960083973943
 10
20.68386204315633
 20
1.111006599143061
 10
20.52229275617437
 20
0.9920238734008245
 10
20.36097148541106
 20
0.8729998017511903
 10
20.19992168250364
 20
0.753922279198118
 10
20.03916679908931
 20
0.6347792007455661
 10
19.87873028680531
 20
0.515558461397494
 10
19.71863559728887
 20
0.39624795615786
 10
19.5589061821772
 20
0.2768355800306233
 10
19.39956549310753
 20
0.1573092280197427
 10
19.2406369817171
 20
0.0376567951291769
 10
19.2406369817171
 20
0.0376567951291755
 10
19.39687745124857
 20
-0.0804992575398622
 10
19.55351330628941
 20
-0.1985239601147819
 10
19.71052333359835
 20
-0.3164287456586829
 10
19.86788631993414
 20
-0.4342250472346646
 10
20.0255810520555
 20
-0.5519242979058263
 10
20.18358631672118
 20
-0.6695379307352675
 10
20.34188090068992
 20
-0.7870773787860877
 10
20.50044359072044
 20
-0.9045540751213859
 10
20.65925317357148
 20
-1.021979452804262
 10
20.81828843600179
 20
-1.139364944897815
 10
20.9775281647701
 20
-1.256721984465145
 10
21.13695114663514
 20
-1.374062004569351
 10
21.29653616835565
 20
-1.491396438273532
 10
21.45626201669036
 20
-1.608736718640788
 10
21.61610747839802
 20
-1.726094278734218
 10
21.77605134023736
 20
-1.843480551616921
 10
21.93607238896712
 20
-1.960906970351998
 10
22.09614941134603
 20
-2.078384968002547
 10
22.25626119413283
 20
-2.195925977631667
 10
22.41638652408626
 20
-2.313541432302459
 10
22.57650418796504
 20
-2.431242765078022
 10
22.73659297252793
 20
-2.549041409021454
 10
22.89663166453365
 20
-2.666948797195856
 10
23.05659905074095
 20
-2.784976362664327
 10
23.21647391790855
 20
-2.903135538489966
 10
23.3762350527952
 20
-3.021437757735872
 10
23.53586124215963
 20
-3.139894453465146
 10
23.69533127276058
 20
-3.258517058740886
 10
23.85462393135678
 20
-3.377317006626192
 10
24.01371800470697
 20
-3.496305730184163
 10
24.17259227956989
 20
-3.615494662477899
 10
24.33122554270428
 20
-3.734895236570499
 10
24.48959658086886
 20
-3.854518885525062
 10
24.64768418082238
 20
-3.974377042404688
 10
24.80546712932358
 20
-4.094481140272476
 10
24.96292421313118
 20
-4.214842612191526
 10
25.12003421900394
 20
-4.335472891224937
 10
25.27677593370057
 20
-4.456383410435809
 10
25.43312814397982
 20
-4.577585602887241
 10
25.58906963660043
 20
-4.699090901642332
 10
25.74457919832113
 20
-4.820910739764181
 10
25.89963561590066
 20
-4.943056550315889
 10
26.05421767609776
 20
-5.065539766360554
 10
26.20830416567116
 20
-5.188371820961276
 10
26.36187387137959
 20
-5.311564147181154
 10
26.5149055799818
 20
-5.435128178083289
 10
26.66737807823653
 20
-5.559075346730778
 10
26.81927015290249
 20
-5.683417086186722
 10
26.97056059073845
 20
-5.808164829514219
 10
27.12122817850312
 20
-5.93333000977637
 10
27.12122817850312
 20
-5.933330009776375
 10
27.26829036922771
 20
-6.056083509973477
 10
27.41542069111162
 20
-6.179136457277442
 10
27.56260396577755
 20
-6.302489825524354
 10
27.70982501484823
 20
-6.426144588550298
 10
27.85706865994635
 20
-6.550101720191359
 10
28.00431972269464
 20
-6.674362194283623
 10
28.15156302471581
 20
-6.798926984663173
 10
28.29878338763256
 20
-6.923797065166096
 10
28.44596563306762
 20
-7.048973409628476
 10
28.59309458264369
 20
-7.174456991886397
 10
28.74015505798348
 20
-7.300248785775945
 10
28.88713188070971
 20
-7.426349765133204
 10
29.03400987244508
 20
-7.55276090379426
 10
29.18077385481232
 20
-7.679483175595198
 10
29.32740864943412
 20
-7.806517554372102
 10
29.47389907793321
 20
-7.933865013961057
 10
29.6202299619323
 20
-8.061526528198148
 10
29.76638612305409
 20
-8.18950307091946
 10
29.9123523829213
 20
-8.317795615961079
 10
30.05811356315664
 20
-8.446405137159088
 10
30.20365448538283
 20
-8.575332608349572
 10
30.34895997122257
 20
-8.704579003368618
 10
30.49401484229858
 20
-8.834145296052309
 10
30.63880392023356
 20
-8.96403246023673
 10
30.78331202665023
 20
-9.094241469757966
 10
30.92752398317131
 20
-9.224773298452102
 10
31.0714246114195
 20
-9.355628920155224
 10
31.21499873301752
 20
-9.486809308703415
 10
31.35823116958808
 20
-9.618315437932762
 10
31.50110674275389
 20
-9.750148281679349
 10
31.64361027413765
 20
-9.88230881377926
 10
31.78572658536209
 20
-10.01479800806858
 10
31.92744049804992
 20
-10.1476168383834
 10
32.06873683382384
 20
-10.28076627855979
 10
32.20960041430658
 20
-10.41424730243385
 10
32.35001606112084
 20
-10.54806088384166
 10
32.48996859588932
 20
-10.68220799661931
 10
32.62944284023476
 20
-10.81668961460287
 10
32.76842361577986
 20
-10.95150671162843
 10
32.90689574414731
 20
-11.08666026153209
 10
33.04484404695986
 20
-11.22215123814992
 10
33.1822533458402
 20
-11.35798061531801
 10
33.31910846241104
 20
-11.49414936687244
 10
33.4553942182951
 20
-11.6306584666493
 10
33.59109543511509
 20
-11.76750888848467
 10
33.72619693449371
 20
-11.90470160621465
 10
33.86068353805369
 20
-12.0422375936753
 10
33.99454006741774
 20
-12.18011782470273
 10
34.12775134420856
 20
-12.318343273133
 10
34.26030219004886
 20
-12.45691491280222
 10
34.39217742656137
 20
-12.59583371754646
 10
34.39217742656137
 20
-12.59583371754646
 10
34.52053822995665
 20
-12.73211406294213
 10
34.64850163489462
 20
-12.86904436750061
 10
34.77607112345494
 20
-13.00660911030543
 10
34.90325017771727
 20
-13.14479277044015
 10
35.0300422797613
 20
-13.28357982698832
 10
35.15645091166669
 20
-13.42295475903348
 10
35.28247955551311
 20
-13.56290204565919
 10
35.40813169338024
 20
-13.70340616594899
 10
35.53341080734774
 20
-13.84445159898643
 10
35.65832037949529
 20
-13.98602282385505
 10
35.78286389190254
 20
-14.12810431963841
 10
35.90704482664918
 20
-14.27068056542005
 10
36.03086666581488
 20
-14.41373604028352
 10
36.15433289147929
 20
-14.55725522331237
 10
36.2774469857221
 20
-14.70122259359014
 10
36.40021243062297
 20
-14.84562263020039
 10
36.52263270826157
 20
-14.99043981222666
 10
36.64471130071759
 20
-15.1356586187525
 10
36.76645169007068
 20
-15.28126352886146
 10
36.8878573584005
 20
-15.42723902163708
 10
37.00893178778674
 20
-15.57356957616292
 10
37.12967846030907
 20
-15.72023967152252
 10
37.25010085804714
 20
-15.86723378679943
 10
37.37020246308065
 20
-16.01453640107719
 10
37.48998675748924
 20
-16.16213199343936
 10
37.6094572233526
 20
-16.31000504296948
 10
37.7286173427504
 20
-16.45814002875111
 10
37.8474705977623
 20
-16.60652142986778
 10
37.96602047046797
 20
-16.75513372540305
 10
38.08427044294708
 20
-16.90396139444047
 10
38.20222399727931
 20
-17.05298891606357
 10
38.31988461554433
 20
-17.20220076935592
 10
38.4372557798218
 20
-17.35158143340106
 10
38.55434097219139
 20
-17.50111538728253
 10
38.67114367473277
 20
-17.65078711008389
 10
38.78766736952563
 20
-17.80058108088868
 10
38.90391553864962
 20
-17.95048177878045
 10
39.01989166418441
 20
-18.10047368284275
 10
39.13559922820967
 20
-18.25054127215912
 10
39.25104171280509
 20
-18.40066902581311
 10
39.36622260005031
 20
-18.55084142288828
 10
39.48114537202502
 20
-18.70104294246817
 10
39.59581351080888
 20
-18.85125806363632
 10
39.71023049848157
 20
-19.00147126547629
 10
39.82439981712276
 20
-19.15166702707163
 10
39.93832494881211
 20
-19.30182982750588
 10
40.05200937562929
 20
-19.45194414586258
 10
40.16545657965399
 20
-19.60199446122529
 10
40.27867004296585
 20
-19.75196525267756
 10
40.39165324764456
 20
-19.90184099930292
 10
40.5044096757698
 20
-20.05160618018495
 10
40.61694280942121
 20
-20.20124527440716
 10
40.61694280942123
 20
-20.20124527440716
 10
40.74090742090323
 20
-20.36679280782937
 10
40.86443627908606
 20
-20.53297484936277
 10
40.98754233655507
 20
-20.69976749129253
 10
41.11023854589559
 20
-20.86714682590379
 10
41.23253785969293
 20
-21.03508894548173
 10
41.35445323053245
 20
-21.20356994231152
 10
41.47599761099947
 20
-21.3725659086783
 10
41.59718395367933
 20
-21.54205293686725
 10
41.71802521115736
 20
-21.71200711916352
 10
41.83853433601892
 20
-21.88240454785228
 10
41.95872428084931
 20
-22.05322131521868
 10
42.07860799823388
 20
-22.2244335135479
 10
42.19819844075796
 20
-22.39601723512509
 10
42.31750856100689
 20
-22.56794857223543
 10
42.43655131156601
 20
-22.74020361716405
 10
42.55533964502064
 20
-22.91275846219614
 10
42.67388651395613
 20
-23.08558919961686
 10
42.79220487095781
 20
-23.25867192171136
 10
42.910307668611
 20
-23.4319827207648
 10
43.02820785950106
 20
-23.60549768906236
 10
43.14591839621331
 20
-23.77919291888918
 10
43.26345223133308
 20
-23.95304450253044
 10
43.38082231744571
 20
-24.12702853227131
 10
43.49804160713655
 20
-24.30112110039692
 10
43.61512305299092
 20
-24.47529829919246
 10
43.73207960759415
 20
-24.64953622094308
 10
43.84892422353159
 20
-24.82381095793395
 10
43.96566985338856
 20
-24.99809860245023
 10
44.0823294497504
 20
-25.17237524677707
 10
44.19891596520244
 20
-25.34661698319965
 10
44.31544235233003
 20
-25.52079990400312
 10
44.43192156371849
 20
-25.69490010147265
 10
44.54836655195316
 20
-25.8688936678934
 10
44.66479026961937
 20
-26.04275669555053
 10
44.78120566930246
 20
-26.2164652767292
 10
44.89762570358776
 20
-26.38999550371457
 10
45.01406332506062
 20
-26.56332346879182
 10
45.13053148630636
 20
-26.7364252642461
 10
45.24704313991033
 20
-26.90927698236256
 10
45.36361123845783
 20
-27.08185471542638
 10
45.48024873453424
 20
-27.25413455572272
 10
45.59696858072485
 20
-27.42609259553673
 10
45.71378372961503
 20
-27.59770492715359
 10
45.8307071337901
 20
-27.76894764285845
 10
45.94775174583539
 20
-27.93979683493648
 10
46.06493051833625
 20
-28.11022859567283
 10
46.06493051833624
 20
-28.11022859567284
 10
46.18208557128631
 20
-27.94013069300573
 10
46.29910768934958
 20
-27.76962279209332
 10
46.41600937175528
 20
-27.59872786860155
 10
46.53280311773271
 20
-27.42746889819632
 10
46.64950142651111
 20
-27.25586885654358
 10
46.76611679731976
 20
-27.08395071930924
 10
46.88266172938792
 20
-26.91173746215922
 10
46.99914872194486
 20
-26.73925206075946
 10
47.11559027421984
 20
-26.56651749077588
 10
47.23199888544212
 20
-26.3935567278744
 10
47.34838705484097
 20
-26.22039274772095
 10
47.46476728164566
 20
-26.04704852598145
 10
47.58115206508544
 20
-25.87354703832183
 10
47.69755390438959
 20
-25.69991126040801
 10
47.81398529878737
 20
-25.52616416790593
 10
47.93045874750804
 20
-25.35232873648149
 10
48.04698674978087
 20
-25.17842794180064
 10
48.16358180483512
 20
-25.00448475952929
 10
48.28025641190007
 20
-24.83052216533336
 10
48.39702307020496
 20
-24.6565631348788
 10
48.51389427897908
 20
-24.48263064383151
 10
48.63088253745168
 20
-24.30874766785742
 10
48.74800034485203
 20
-24.13493718262247
 10
48.86526020040939
 20
-23.96122216379256
 10
48.98267460335303
 20
-23.78762558703364
 10
49.10025605291221
 20
-23.61417042801162
 10
49.2180170483162
 20
-23.44087966239243
 10
49.33597008879427
 20
-23.26777626584199
 10
49.45412767357566
 20
-23.09488321402623
 10
49.57250230188968
 20
-22.92222348261107
 10
49.69110647296555
 20
-22.74982004726245
 10
49.80995268603256
 20
-22.57769588364628
 10
49.92905344031997
 20
-22.40587396742849
 10
50.04842123505703
 20
-22.234377274275
 10
50.16806856947303
 20
-22.06322877985174
 10
50.28800794279721
 20
-21.89245145982464
 10
50.40825185425886
 20
-21.72206828985962
 10
50.52881280308723
 20
-21.5521022456226
 10
50.64970328851159
 20
-21.38257630277951
 10
50.7709358097612
 20
-21.21351343699628
 10
50.89252286606532
 20
-21.04493662393882
 10
51.01447695665322
 20
-20.87686883927307
 10
51.13681058075417
 20
-20.70933305866495
 10
51.25953623759745
 20
-20.54235225778038
 10
51.38266642641228
 20
-20.3759494122853
 10
51.50621364642797
 20
-20.21014749784562
 10
51.63019039687377
 20
-20.04496949012727
 10
51.63019039687378
 20
-20.04496949012726
 10
51.74456789767709
 20
-19.89323119569588
 10
51.8591819765802
 20
-19.74136742041487
 10
51.9740360613373
 20
-19.58939435236607
 10
52.08913357970254
 20
-19.43732817963135
 10
52.20447795943009
 20
-19.28518509029254
 10
52.32007262827412
 20
-19.1329812724315
 10
52.43592101398878
 20
-18.98073291413008
 10
52.55202654432825
 20
-18.82845620347013
 10
52.6683926470467
 20
-18.67616732853349
 10
52.78502274989827
 20
-18.52388247740202
 10
52.90192028063715
 20
-18.37161783815756
 10
53.01908866701749
 20
-18.21938959888196
 10
53.13653133679346
 20
-18.06721394765709
 10
53.25425171771922
 20
-17.91510707256477
 10
53.37225323754895
 20
-17.76308516168687
 10
53.4905393240368
 20
-17.61116440310523
 10
53.60911340493694
 20
-17.4593609849017
 10
53.72797890800353
 20
-17.30769109515813
 10
53.84713926099074
 20
-17.15617092195637
 10
53.96659789165274
 20
-17.00481665337828
 10
54.08635822774368
 20
-16.85364447750569
 10
54.20642369701774
 20
-16.70267058242046
 10
54.32679772722908
 20
-16.55191115620444
 10
54.44748374613186
 20
-16.40138238693948
 10
54.56848518148024
 20
-16.25110046270742
 10
54.68980546102841
 20
-16.10108157159012
 10
54.81144801253051
 20
-15.95134190166943
 10
54.93341626374071
 20
-15.8018976410272
 10
55.05571364241319
 20
-15.65276497774527
 10
55.17834357630209
 20
-15.5039600999055
 10
55.30130949316159
 20
-15.35549919558973
 10
55.42461482074585
 20
-15.20739845287981
 10
55.54826298680904
 20
-15.0596740598576
 10
55.67225741910533
 20
-14.91234220460494
 10
55.79660154538887
 20
-14.76541907520368
 10
55.92129879341384
 20
-14.61892085973568
 10
56.04635259093439
 20
-14.47286374628277
 10
56.17176636570469
 20
-14.32726392292682
 10
56.29754354547892
 20
-14.18213757774967
 10
56.42368755801123
 20
-14.03750089883316
 10
56.55020183105578
 20
-13.89337007425916
 10
56.67708979236675
 20
-13.7497612921095
 10
56.80435486969829
 20
-13.60669074046604
 10
56.93200049080457
 20
-13.46417460741063
 10
57.06003008343976
 20
-13.32222908102512
 10
57.18844707535802
 20
-13.18087034939135
 10
57.31725489431352
 20
-13.04011460059118
 10
57.44645696806042
 20
-12.89997802270646
 10
57.57605672435289
 20
-12.76047680381903
 10
57.70605759094508
 20
-12.62162713201074
 10
57.83646299559118
 20
-12.48344519536345
 10
57.83646299559117
 20
-12.48344519536344
 10
57.97158422530645
 20
-12.34138906373716
 10
58.10740077104657
 20
-12.19968546763597
 10
58.24389693438863
 20
-12.05833388435235
 10
58.38105701690972
 20
-11.91733379117877
 10
58.51886532018696
 20
-11.77668466540772
 10
58.65730614579742
 20
-11.63638598433166
 10
58.79636379531821
 20
-11.49643722524307
 10
58.93602257032644
 20
-11.35683786543444
 10
59.0762667723992
 20
-11.21758738219823
 10
59.21708070311359
 20
-11.07868525282692
 10
59.35844866404671
 20
-10.94013095461298
 10
59.50035495677565
 20
-10.80192396484891
 10
59.64278388287752
 20
-10.66406376082716
 10
59.78571974392941
 20
-10.52654981984022
 10
59.92914684150844
 20
-10.38938161918056
 10
60.07304947719168
 20
-10.25255863614066
 10
60.21741195255625
 20
-10.116080348013
 10
60.36221856917923
 20
-9.979946232090048
 10
60.50745362863773
 20
-9.844155765664282
 10
60.65310143250886
 20
-9.708708426028181
 10
60.79914628236969
 20
-9.573603690474218
 10
60.94557247979734
 20
-9.438841036294872
 10
61.0923643263689
 20
-9.304419940782619
 10
61.23950612366149
 20
-9.170339881229933
 10
61.38698217325218
 20
-9.036600334929293
 10
61.53477677671808
 20
-8.903200779173172
 10
61.6828742356363
 20
-8.770140691254049
 10
61.83125885158393
 20
-8.637419548464398
 10
61.97991492613806
 20
-8.505036828096697
 10
62.12882676087581
 20
-8.372992007443421
 10
62.27797865737425
 20
-8.241284563797048
 10
62.42735491721049
 20
-8.109913974450051
 10
62.57693984196165
 20
-7.978879716694909
 10
62.7267177332048
 20
-7.848181267824097
 10
62.87667289251706
 20
-7.717818105130091
 10
63.02678962147551
 20
-7.587789705905368
 10
63.17705222165726
 20
-7.458095547442404
 10
63.32744499463942
 20
-7.328735107033675
 10
63.47795224199906
 20
-7.199707861971656
 10
63.6285582653133
 20
-7.071013289548825
 10
63.77924736615923
 20
-6.942650867057658
 10
63.93000384611396
 20
-6.81462007179063
 10
64.08081200675458
 20
-6.686920381040219
 10
64.23165614965819
 20
-6.559551272098899
 10
64.38252057640188
 20
-6.432512222259148
 10
64.53338958856277
 20
-6.305802708813442
 10
64.68424748771794
 20
-6.179422209054256
 10
64.8350785754445
 20
-6.053370200274066
 10
64.98586715331954
 20
-5.92764615976535
 10
65.13659752292017
 20
-5.802249564820583
 10
65.13659752292017
 20
-5.802249564820579
 10
65.28471903965822
 20
-5.679635773324283
 10
65.43346133528756
 20
-5.55744611976868
 10
65.58280329228536
 20
-5.435668931410789
 10
65.73272379312886
 20
-5.314292535507624
 10
65.88320172029526
 20
-5.193305259316202
 10
66.03421595626177
 20
-5.072695430093539
 10
66.18574538350562
 20
-4.952451375096651
 10
66.33776888450398
 20
-4.832561421582553
 10
66.4902653417341
 20
-4.713013896808262
 10
66.64321363767317
 20
-4.593797128030794
 10
66.7965926547984
 20
-4.474899442507164
 10
66.950381275587
 20
-4.35630916749439
 10
67.1045583825162
 20
-4.238014630249486
 10
67.2591028580632
 20
-4.12000415802947
 10
67.4139935847052
 20
-4.002266078091356
 10
67.56920944491941
 20
-3.884788717692161
 10
67.72472932118304
 20
-3.767560404088901
 10
67.88053209597333
 20
-3.650569464538593
 10
68.03659665176747
 20
-3.533804226298252
 10
68.19290187104266
 20
-3.417253016624894
 10
68.34942663627614
 20
-3.300904162775534
 10
68.50614982994507
 20
-3.18474599200719
 10
68.66305033452672
 20
-3.068766831576878
 10
68.82010703249825
 20
-2.952955008741612
 10
68.9772988063369
 20
-2.83729885075841
 10
69.13460453851988
 20
-2.721786684884287
 10
69.29200311152438
 20
-2.60640683837626
 10
69.44947340782762
 20
-2.491147638491344
 10
69.60699430990683
 20
-2.375997412486555
 10
69.7645447002392
 20
-2.26094448761891
 10
69.92210346130194
 20
-2.145977191145424
 10
70.07964947557226
 20
-2.031083850323114
 10
70.23716162552739
 20
-1.916252792408995
 10
70.39461879364452
 20
-1.801472344660084
 10
70.55199986240087
 20
-1.686730834333397
 10
70.70928371427365
 20
-1.572016588685949
 10
70.86644923174006
 20
-1.457317934974757
 10
71.02347529727733
 20
-1.342623200456837
 10
71.18034079336266
 20
-1.227920712389204
 10
71.33702460247325
 20
-1.113198798028876
 10
71.49350560708632
 20
-0.998445784632867
 10
71.64976268967909
 20
-0.8836499994581938
 10
71.80577473272876
 20
-0.7687997697618727
 10
71.96152061871254
 20
-0.6538834228009194
 10
72.11697923010764
 20
-0.53888928583235
 10
72.27212944939129
 20
-0.4238056861131807
 10
72.42695015904067
 20
-0.3086209509004272
 10
72.58142024153301
 20
-0.1933234074511058
 10
72.73551857934551
 20
-0.0779013830222325
 10
72.88922405495537
 20
0.0376567951291767
  0
LWPOLYLINE
  5
24B
330
1F
100
AcDbEntity
  8
Vector Layer 1
 62
    18
420
        0
370
    30
100
AcDbPolyline
 90
        8
 70
     0
 43
0.0
 10
-1.587165952375555
 20
-44.44999999999996
 10
-1.587165952375555
 20
44.44999999999997
 10
-1.587165952375555
 20
44.44999999999997
 10
-90.48716595237555
 20
44.45
 10
-90.48716595237555
 20
44.45
 10
-90.48716595237555
 20
-44.44999999999999
 10
-90.48716595237555
 20
-44.44999999999999
 10
-1.587165952375555
 20
-44.44999999999996
210
0.0
220
0.0
230
-1.0
  0
LWPOLYLINE
  5
24C
330
1F
100
AcDbEntity
  8
Vector Layer 1
 62
    18
420
        0
370
    30
100
AcDbPolyline
 90
       77
 70
     0
 43
0.0
 10
46.07154912690566
 20
8.962731374022689
 10
46.17733422694265
 20
8.843494749521273
 10
46.28304251320772
 20
8.723841763284825
 10
46.38868636758922
 20
8.603804194660417
 10
46.49427817197553
 20
8.483413822995123
 10
46.59983030825501
 20
8.362702427636014
 10
46.70535515831605
 20
8.241701787930162
 10
46.81086510404698
 20
8.120443683224639
 10
46.91637252733619
 20
7.998959892866517
 10
47.02188981007206
 20
7.87728219620287
 10
47.12742933414295
 20
7.755442372580767
 10
47.23300348143722
 20
7.633472201347283
 10
47.33862463384324
 20
7.511403461849488
 10
47.44430517324939
 20
7.389267933434455
 10
47.55005748154403
 20
7.267097395449256
 10
47.65589394061553
 20
7.144923627240963
 10
47.76182693235226
 20
7.022778408156648
 10
47.86786883864258
 20
6.900693517543384
 10
47.97403204137487
 20
6.778700734748243
 10
48.0803289224375
 20
6.656831839118296
 10
48.18677186371883
 20
6.535118610000616
 10
48.29337324710723
 20
6.413592826742275
 10
48.40014545449108
 20
6.292286268690344
 10
48.50710086775873
 20
6.171230715191897
 10
48.61425186879855
 20
6.050457945594005
 10
48.72161083949891
 20
5.92999973924374
 10
48.8291901617482
 20
5.809887875488175
 10
48.93700221743476
 20
5.690154133674381
 10
49.04505938844699
 20
5.57083029314943
 10
49.15337405667322
 20
5.451948133260396
 10
49.26195860400185
 20
5.333539433354349
 10
49.37082541232124
 20
5.215635972778363
 10
49.47998686351975
 20
5.098269530879508
 10
49.58945533948575
 20
4.981471887004857
 10
49.69924322210761
 20
4.865274820501483
 10
49.80936289327371
 20
4.749710110716458
 10
49.91982673487242
 20
4.634809536996853
 10
49.91982673487243
 20
4.634809536996851
 10
50.03674962655683
 20
4.514257620821195
 10
50.1543321608245
 20
4.394018637073693
 10
50.27254543539094
 20
4.274082467988087
 10
50.39136054797165
 20
4.154438995798122
 10
50.51074859628213
 20
4.035078102737544
 10
50.63068067803787
 20
3.915989671040094
 10
50.75112789095438
 20
3.797163582939519
 10
50.87206133274714
 20
3.678589720669563
 10
50.99345210113167
 20
3.560257966463969
 10
51.11527129382345
 20
3.442158202556483
 10
51.23749000853798
 20
3.324280311180848
 10
51.36007934299077
 20
3.206614174570808
 10
51.48301039489731
 20
3.089149674960109
 10
51.60625426197309
 20
2.971876694582495
 10
51.72978204193363
 20
2.854785115671709
 10
51.8535648324944
 20
2.737864820461497
 10
51.97757373137092
 20
2.621105691185601
 10
52.10177983627868
 20
2.504497610077768
 10
52.22615424493317
 20
2.38803045937174
 10
52.35066805504989
 20
2.271694121301263
 10
52.47529236434434
 20
2.155478478100081
 10
52.59999827053203
 20
2.039373412001938
 10
52.72475687132844
 20
1.923368805240578
 10
52.84953926444909
 20
1.807454540049746
 10
52.97431654760945
 20
1.691620498663186
 10
53.09905981852503
 20
1.575856563314642
 10
53.22374017491133
 20
1.460152616237859
 10
53.34832871448385
 20
1.344498539666581
 10
53.47279653495809
 20
1.228884215834552
 10
53.59711473404954
 20
1.113299526975517
 10
53.72125440947369
 20
0.9977343553232204
 10
53.84518665894606
 20
0.8821785831114056
 10
53.96888258018212
 20
0.7666220925738175
 10
54.0923132708974
 20
0.6510547659442003
 10
54.21544982880737
 20
0.5354664854562984
 10
54.33826335162755
 20
0.4198471333438561
 10
54.46072493707341
 20
0.3041865918406177
 10
54.58280568286048
 20
0.1884747431803276
 10
54.70447668670423
 20
0.0727014695967301
  0
LWPOLYLINE
  5
24D
330
1F
100
AcDbEntity
  8
Vector Layer 1
 62
    18
420
        0
370
    30
100
AcDbPolyline
 90
       68
 70
     0
 43
0.0
 10
54.70447668670423
 20
0.0727014695967301
 10
54.55598441165026
 20
-0.0700322435552778
 10
54.40725022354251
 20
-0.2125210382822732
 10
54.25830436151269
 20
-0.3547955293873827
 10
54.10917706469252
 20
-0.4968863316737329
 10
53.95989857221373
 20
-0.6388240599444503
 10
53.81049912320804
 20
-0.7806393290026615
 10
53.66100895680719
 20
-0.9223627536514928
 10
53.51145831214288
 20
-1.064024948694071
 10
53.36187742834685
 20
-1.205656528933523
 10
53.21229654455081
 20
-1.347288109172974
 10
53.0627458998865
 20
-1.488950304215553
 10
52.91325573348564
 20
-1.630673728864384
 10
52.76385628447996
 20
-1.772488997922595
 10
52.61457779200117
 20
-1.914426726193313
 10
52.465450495181
 20
-2.056517528479663
 10
52.31650463315117
 20
-2.198792019584772
 10
52.16777044504342
 20
-2.341280814311768
 10
52.01927816998946
 20
-2.484014527463775
 10
51.87105804712102
 20
-2.627023773843923
 10
51.72314031556981
 20
-2.770339168255335
 10
51.57555521446758
 20
-2.91399132550114
 10
51.42833298294603
 20
-3.058010860384464
 10
51.2815038601369
 20
-3.202428387708432
 10
51.1350980851719
 20
-3.347274522276173
 10
50.98914589718277
 20
-3.492579878890811
 10
50.84367753530123
 20
-3.638375072355475
 10
50.69872323865899
 20
-3.784690717473291
 10
50.698723238659
 20
-3.78469071747329
 10
50.52564620096881
 20
-3.960437630710699
 10
50.35296639605071
 20
-4.136588823433978
 10
50.18069333999595
 20
-4.313149566391872
 10
50.00883654889579
 20
-4.490125130333125
 10
49.83740553884149
 20
-4.667520786006483
 10
49.66640982592429
 20
-4.84534180416069
 10
49.49585892623546
 20
-5.023593455544491
 10
49.32576235586626
 20
-5.202281010906632
 10
49.15612963090794
 20
-5.381409740995856
 10
48.98697026745176
 20
-5.560984916560909
 10
48.81829378158897
 20
-5.741011808350536
 10
48.65010968941082
 20
-5.921495687113481
 10
48.48242750700858
 20
-6.10244182359849
 10
48.31525675047352
 20
-6.283855488554308
 10
48.14860693589686
 20
-6.465741952729678
 10
47.98248757936988
 20
-6.648106486873347
 10
47.81690819698384
 20
-6.830954361734058
 10
47.65187830482997
 20
-7.014290848060558
 10
47.48740741899957
 20
-7.198121216601591
 10
47.32350505558385
 20
-7.382450738105902
 10
47.32350505558385
 20
-7.382450738105905
 10
47.24711949999884
 20
-7.469155787216464
 10
47.17123749385211
 20
-7.556294650243262
 10
47.09581325992203
 20
-7.643827889557551
 10
47.0208010209869
 20
-7.731716067530581
 10
46.94615499982509
 20
-7.819919746533604
 10
46.8718294192149
 20
-7.90839948893787
 10
46.79777850193471
 20
-7.997115857114631
 10
46.72395647076283
 20
-8.086029413435138
 10
46.65031754847759
 20
-8.17510072027064
 10
46.57681595785734
 20
-8.264290339992388
 10
46.50340592168043
 20
-8.353558834971636
 10
46.43004166272517
 20
-8.442866767579632
 10
46.35667740376993
 20
-8.532174700187628
 10
46.28326736759301
 20
-8.621443195166875
 10
46.20976577697276
 20
-8.710632814888624
 10
46.13612685468753
 20
-8.799704121724126
 10
46.06230482351564
 20
-8.888617678044631
 10
45.98825390623544
 20
-8.977334046221391
  0
LWPOLYLINE
  5
24E
330
1F
100
AcDbEntity
  8
Vector Layer 1
 62
    18
420
        0
370
    30
100
AcDbPolyline
 90
       85
 70
     0
 43
0.0
 10
45.98825390623544
 20
-8.977334046221395
 10
45.92460539307501
 20
-8.895614820703523
 10
45.86122604905412
 20
-8.813674596683483
 10
45.7980791692901
 20
-8.731543510320662
 10
45.73512804890029
 20
-8.649251697774447
 10
45.67233598300203
 20
-8.566829295204223
 10
45.60966626671264
 20
-8.48430643876938
 10
45.54708219514948
 20
-8.4017132646293
 10
45.48454706342986
 20
-8.319079908943372
 10
45.42202416667114
 20
-8.236436507870982
 10
45.35947679999064
 20
-8.153813197571516
 10
45.2968682585057
 20
-8.071240114204361
 10
45.23416183733366
 20
-7.988747393928902
 10
45.17132083159184
 20
-7.906365172904528
 10
45.10830853639759
 20
-7.824123587290623
 10
45.04508824686825
 20
-7.742052773246575
 10
44.98162325812113
 20
-7.660182866931769
 10
44.91787686527358
 20
-7.578544004505594
 10
44.85381236344296
 20
-7.497166322127434
 10
44.78939304774658
 20
-7.416079955956675
 10
44.72458221330177
 20
-7.335315042152705
 10
44.65934315522588
 20
-7.25490171687491
 10
44.59363916863624
 20
-7.174870116282677
 10
44.52743354865019
 20
-7.095250376535391
 10
44.46068959038506
 20
-7.01607263379244
 10
44.39337058895818
 20
-6.937367024213209
 10
44.39337058895818
 20
-6.937367024213209
 10
44.2671098695295
 20
-6.791449627147466
 10
44.14028020783344
 20
-6.646025948425264
 10
44.01289531156288
 20
-6.501085819875043
 10
43.88496888841069
 20
-6.356619073325242
 10
43.75651464606973
 20
-6.212615540604302
 10
43.62754629223288
 20
-6.069065053540662
 10
43.49807753459302
 20
-5.925957443962763
 10
43.36812208084301
 20
-5.783282543699045
 10
43.23769363867573
 20
-5.641030184577948
 10
43.10680591578406
 20
-5.499190198427911
 10
42.97547261986085
 20
-5.357752417077374
 10
42.843707458599
 20
-5.216706672354779
 10
42.71152413969137
 20
-5.076042796088564
 10
42.57893637083084
 20
-4.93575062010717
 10
42.44595785971026
 20
-4.795819976239037
 10
42.31260231402252
 20
-4.656240696312605
 10
42.1788834414605
 20
-4.517002612156313
 10
42.04481494971706
 20
-4.378095555598603
 10
41.91041054648508
 20
-4.239509358467913
 10
41.77568393945743
 20
-4.101233852592685
 10
41.64064883632698
 20
-3.963258869801357
 10
41.5053189447866
 20
-3.82557424192237
 10
41.36970797252917
 20
-3.688169800784165
 10
41.23382962724757
 20
-3.55103537821518
 10
41.09769761663465
 20
-3.414160806043856
 10
40.9613256483833
 20
-3.277535916098633
 10
40.8247274301864
 20
-3.141150540207952
 10
40.68791666973679
 20
-3.004994510200251
 10
40.55090707472738
 20
-2.869057657903972
 10
40.41371235285103
 20
-2.733329815147554
 10
40.2763462118006
 20
-2.597800813759437
 10
40.27634621180059
 20
-2.597800813759437
 10
40.17109521833211
 20
-2.494618165071721
 10
40.06534766515172
 20
-2.391956738891553
 10
39.95913395387443
 20
-2.289784623636838
 10
39.85248448611525
 20
-2.18806990772548
 10
39.7454296634892
 20
-2.086780679575385
 10
39.6379998876113
 20
-1.985885027604458
 10
39.53022556009656
 20
-1.885351040230605
 10
39.42213708256
 20
-1.785146805871731
 10
39.31376485661662
 20
-1.685240412945741
 10
39.20513928388146
 20
-1.58559994987054
 10
39.09629076596952
 20
-1.486193505064034
 10
38.9872497044958
 20
-1.386989166944127
 10
38.87804650107535
 20
-1.287955023928726
 10
38.76871155732316
 20
-1.189059164435735
 10
38.65927527485425
 20
-1.09026967688306
 10
38.54976805528364
 20
-0.9915546496886069
 10
38.44022030022635
 20
-0.8928821712702793
 10
38.33066241129738
 20
-0.7942203300459834
 10
38.22112479011176
 20
-0.6955372144336243
 10
38.1116378382845
 20
-0.5968009128511073
 10
38.0022319574306
 20
-0.4979795137163377
 10
37.8929375491651
 20
-0.3990411054472207
 10
37.783785015103
 20
-0.2999537764616617
 10
37.67480475685932
 20
-0.200685615177566
 10
37.56602717604908
 20
-0.1012047100128387
 10
37.45748267428729
 20
-0.0014791493853852
  0
LWPOLYLINE
  5
24F
330
1F
100
AcDbEntity
  8
Vector Layer 1
 62
    18
420
        0
370
    30
100
AcDbPolyline
 90
       73
 70
     0
 43
0.0
 10
37.45748267428729
 20
-0.0014791493853852
 10
37.55707275248888
 20
0.0894328331807646
 10
37.65688107965127
 20
0.1801134355513524
 10
37.75687319541223
 20
0.2705991914414669
 10
37.85701463940953
 20
0.360926634566197
 10
37.95727095128093
 20
0.4511322986406313
 10
38.0576076706642
 20
0.5412527173798586
 10
38.15799033719711
 20
0.6313244244989674
 10
38.25838449051744
 20
0.7213839537130468
 10
38.35875567026295
 20
0.8114678387371851
 10
38.45906941607141
 20
0.9016126132864716
 10
38.55929126758058
 20
0.9918548110759946
 10
38.65938676442823
 20
1.082230965820842
 10
38.75932144625214
 20
1.172777611236105
 10
38.85906085269006
 20
1.26353128103687
 10
38.95857052337979
 20
1.354528508938227
 10
39.05781599795906
 20
1.445805828655264
 10
39.15676281606567
 20
1.53739977390307
 10
39.25537651733737
 20
1.629346878396734
 10
39.35362264141193
 20
1.721683675851344
 10
39.45146672792713
 20
1.81444669998199
 10
39.54887431652073
 20
1.907672484503759
 10
39.6458109468305
 20
2.001397563131742
 10
39.64581094683051
 20
2.001397563131742
 10
39.80721337418792
 20
2.158790140857214
 10
39.968249102691
 20
2.316816067690078
 10
40.12890725755791
 20
2.475443999057199
 10
40.28917696400681
 20
2.634642590385444
 10
40.44904734725589
 20
2.794380497101679
 10
40.60850753252328
 20
2.954626374632769
 10
40.76754664502716
 20
3.115348878405581
 10
40.92615380998568
 20
3.276516663846981
 10
41.08431815261701
 20
3.438098386383835
 10
41.24202879813931
 20
3.600062701443009
 10
41.39927487177074
 20
3.762378264451369
 10
41.55604549872947
 20
3.925013730835781
 10
41.71232980423367
 20
4.087937756023111
 10
41.86811691350148
 20
4.251118995440226
 10
42.02339595175108
 20
4.41452610451399
 10
42.17815604420063
 20
4.578127738671271
 10
42.33238631606829
 20
4.741892553338935
 10
42.48607589257221
 20
4.905789203943847
 10
42.63921389893058
 20
5.069786345912873
 10
42.79178946036154
 20
5.233852634672879
 10
42.94379170208326
 20
5.397956725650732
 10
43.0952097493139
 20
5.562067274273297
 10
43.0952097493139
 20
5.562067274273297
 10
43.2116615567154
 20
5.689013792954901
 10
43.32788787173798
 20
5.816660304833522
 10
43.44389710876942
 20
5.944957793303389
 10
43.55969768219756
 20
6.073857241758733
 10
43.67529800641018
 20
6.203309633593782
 10
43.79070649579512
 20
6.333265952202767
 10
43.90593156474017
 20
6.463677180979916
 10
44.02098162763315
 20
6.594494303319462
 10
44.13586509886186
 20
6.725668302615631
 10
44.25059039281411
 20
6.857150162262655
 10
44.36516592387772
 20
6.988890865654763
 10
44.47960010644051
 20
7.120841396186185
 10
44.59390135489026
 20
7.252952737251151
 10
44.7080780836148
 20
7.385175872243889
 10
44.82213870700195
 20
7.517461784558631
 10
44.9360916394395
 20
7.649761457589606
 10
45.04994529531526
 20
7.782025874731043
 10
45.16370808901705
 20
7.914206019377171
 10
45.27738843493269
 20
8.046252874922222
 10
45.39099474744997
 20
8.178117424760424
 10
45.50453544095671
 20
8.309750652286007
 10
45.61801892984072
 20
8.441103540893202
 10
45.73145362848981
 20
8.572127073976238
 10
45.84484795129179
 20
8.702772234929344
 10
45.95821031263446
 20
8.832990007146751
 10
46.07154912690565
 20
8.962731374022688
  0
LWPOLYLINE
  5
250
330
1F
100
AcDbEntity
  8
Vector Layer 1
 62
    18
420
        0
370
    30
100
AcDbPolyline
 90
      135
 70
     0
 43
0.0
 10
46.06493051833624
 20
-17.08486006421162
 10
45.97456392905188
 20
-16.96429314629512
 10
45.88431608991487
 20
-16.8433285117849
 10
45.79417159209637
 20
-16.7219961766444
 10
45.70411502676751
 20
-16.6003261568371
 10
45.61413098509945
 20
-16.47834846832644
 10
45.52420405826332
 20
-16.3560931270759
 10
45.43431883743027
 20
-16.23359014904892
 10
45.34445991377143
 20
-16.11086955020897
 10
45.25461187845798
 20
-15.9879613465195
 10
45.16475932266103
 20
-15.86489555394398
 10
45.07488683755174
 20
-15.74170218844586
 10
44.98497901430126
 20
-15.6184112659886
 10
44.89502044408072
 20
-15.49505280253567
 10
44.80499571806127
 20
-15.37165681405052
 10
44.71488942741407
 20
-15.24825331649661
 10
44.62468616331024
 20
-15.1248723258374
 10
44.53437051692094
 20
-15.00154385803634
 10
44.4439270794173
 20
-14.8782979290569
 10
44.35334044197048
 20
-14.75516455486254
 10
44.26259519575163
 20
-14.63217375141671
 10
44.17167593193187
 20
-14.50935553468288
 10
44.08056724168236
 20
-14.3867399206245
 10
43.98925371617425
 20
-14.26435692520503
 10
43.89771994657867
 20
-14.14223656438793
 10
43.80595052406678
 20
-14.02040885413667
 10
43.71393003980971
 20
-13.89890381041469
 10
43.62164308497861
 20
-13.77775144918546
 10
43.52907425074463
 20
-13.65698178641244
 10
43.43620812827891
 20
-13.53662483805908
 10
43.34302930875259
 20
-13.41671062008885
 10
43.24952238333683
 20
-13.2972691484652
 10
43.15567194320276
 20
-13.1783304391516
 10
43.06146257952152
 20
-13.0599245081115
 10
42.96687888346427
 20
-12.94208137130836
 10
42.87190544620214
 20
-12.82483104470564
 10
42.77652685890628
 20
-12.70820354426679
 10
42.77652685890628
 20
-12.70820354426678
 10
42.64946736020217
 20
-12.55384085744537
 10
42.52197781162561
 20
-12.39944254601389
 10
42.39406155503368
 20
-12.2450274740403
 10
42.26572193228343
 20
-12.09061450559257
 10
42.13696228523194
 20
-11.93622250473864
 10
42.00778595573629
 20
-11.78187033554647
 10
41.87819628565352
 20
-11.62757686208402
 10
41.74819661684074
 20
-11.47336094841925
 10
41.61779029115498
 20
-11.3192414586201
 10
41.48698065045334
 20
-11.16523725675455
 10
41.35577103659287
 20
-11.01136720689053
 10
41.22416479143065
 20
-10.85765017309602
 10
41.09216525682375
 20
-10.70410501943896
 10
40.95977577462924
 20
-10.55075060998732
 10
40.82699968670417
 20
-10.39760580880905
 10
40.69384033490564
 20
-10.2446894799721
 10
40.5603010610907
 20
-10.09202048754443
 10
40.42638520711643
 20
-9.939617695594
 10
40.29209611483989
 20
-9.787499968188763
 10
40.15743712611816
 20
-9.635686169396677
 10
40.0224115828083
 20
-9.484195163285697
 10
39.88702282676739
 20
-9.33304581392378
 10
39.75127419985248
 20
-9.182256985378883
 10
39.61516904392066
 20
-9.03184754171896
 10
39.478710700829
 20
-8.881836347011969
 10
39.34190251243456
 20
-8.732242265325867
 10
39.20474782059441
 20
-8.58308416072861
 10
39.06724996716562
 20
-8.434380897288153
 10
38.92941229400526
 20
-8.286151339072453
 10
38.79123814297041
 20
-8.138414350149467
 10
38.65273085591812
 20
-7.99118879458715
 10
38.51389377470548
 20
-7.844493536453458
 10
38.37473024118955
 20
-7.698347439816348
 10
38.23524359722739
 20
-7.552769368743777
 10
38.0954371846761
 20
-7.4077781873037
 10
37.95531434539271
 20
-7.263392759564075
 10
37.81487842123431
 20
-7.119631949592856
 10
37.67413275405798
 20
-6.976514621458002
 10
37.53308068572077
 20
-6.834059639227467
 10
37.39172555807976
 20
-6.692285866969208
 10
37.25007071299202
 20
-6.551212168751181
 10
37.25007071299204
 20
-6.551212168751179
 10
37.12262054172951
 20
-6.425271022520626
 10
36.99452769154117
 20
-6.299737982769909
 10
36.8658115634323
 20
-6.17460282864735
 10
36.73649155840819
 20
-6.049855339301273
 10
36.60658707747412
 20
-5.925485293879999
 10
36.47611752163539
 20
-5.801482471531851
 10
36.34510229189729
 20
-5.677836651405153
 10
36.2135607892651
 20
-5.554537612648226
 10
36.08151241474411
 20
-5.431575134409393
 10
35.94897656933962
 20
-5.308938995836977
 10
35.81597265405691
 20
-5.186618976079301
 10
35.68252006990127
 20
-5.064604854284686
 10
35.54863821787798
 20
-4.942886409601456
 10
35.41434649899235
 20
-4.821453421177933
 10
35.27966431424964
 20
-4.70029566816244
 10
35.14461106465517
 20
-4.5794029297033
 10
35.0092061512142
 20
-4.458764984948834
 10
34.87346897493204
 20
-4.338371613047367
 10
34.73741893681397
 20
-4.218212593147219
 10
34.60107543786528
 20
-4.098277704396715
 10
34.46445787909126
 20
-3.978556725944176
 10
34.32758566149719
 20
-3.859039436937925
 10
34.19047818608837
 20
-3.739715616526285
 10
34.05315485387009
 20
-3.620575043857579
 10
33.91563506584762
 20
-3.501607498080129
 10
33.77793822302626
 20
-3.382802758342257
 10
33.64008372641131
 20
-3.264150603792286
 10
33.50209097700805
 20
-3.145640813578539
 10
33.36397937582177
 20
-3.027263166849339
 10
33.22576832385774
 20
-2.909007442753008
 10
33.08747722212128
 20
-2.790863420437868
 10
32.94912547161767
 20
-2.672820879052243
 10
32.81073247335218
 20
-2.554869597744455
 10
32.67231762833011
 20
-2.436999355662826
 10
32.53390033755675
 20
-2.319199931955679
 10
32.3955000020374
 20
-2.201461105771338
 10
32.25713602277732
 20
-2.083772656258123
 10
32.11882780078183
 20
-1.966124362564359
 10
31.9805947370562
 20
-1.848506003838367
 10
31.84245623260573
 20
-1.73090735922847
 10
31.70443168843569
 20
-1.613318207882992
 10
31.5665405055514
 20
-1.495728328950253
 10
31.42880208495812
 20
-1.378127501578578
 10
31.29123582766114
 20
-1.260505504916288
 10
31.15386113466577
 20
-1.142852118111707
 10
31.01669740697728
 20
-1.025157120313157
 10
30.87976404560097
 20
-0.9074102906689603
 10
30.74308045154212
 20
-0.7896014083274397
 10
30.60666602580603
 20
-0.6717202524369177
 10
30.47054016939797
 20
-0.5537566021457172
 10
30.33472228332324
 20
-0.4357002366021607
 10
30.19923176858713
 20
-0.3175409349545708
 10
30.06408802619493
 20
-0.19926847635127
 10
29.92931045715192
 20
-0.0808726399405812
 10
29.7949184624634
 20
0.0376567951291733
  0
LWPOLYLINE
  5
251
330
1F
100
AcDbEntity
  8
Vector Layer 1
 62
    18
420
        0
370
    30
100
AcDbPolyline
 90
      154
 70
     0
 43
0.0
 10
46.06493051833624
 20
-19.5699108001125
 10
45.99188857403737
 20
-19.46494223522426
 10
45.91901926003499
 20
-19.35962164579922
 10
45.84630610272514
 20
-19.25397274713478
 10
45.77373262850382
 20
-19.14801925452831
 10
45.70128236376708
 20
-19.04178488327721
 10
45.62893883491094
 20
-18.93529334867886
 10
45.55668556833141
 20
-18.82856836603064
 10
45.48450609042452
 20
-18.72163365062995
 10
45.41238392758631
 20
-18.61451291777416
 10
45.34030260621279
 20
-18.50722988276067
 10
45.2682456527
 20
-18.39980826088685
 10
45.19619659344394
 20
-18.29227176745011
 10
45.12413895484066
 20
-18.18464411774781
 10
45.05205626328617
 20
-18.07694902707735
 10
44.9799320451765
 20
-17.96921021073612
 10
44.90774982690768
 20
-17.8614513840215
 10
44.83549313487573
 20
-17.75369626223087
 10
44.76314549547668
 20
-17.64596856066163
 10
44.69069043510653
 20
-17.53829199461115
 10
44.61811148016134
 20
-17.43069027937683
 10
44.54539215703713
 20
-17.32318713025606
 10
44.47251599212989
 20
-17.21580626254621
 10
44.3994665118357
 20
-17.10857139154467
 10
44.32622724255053
 20
-17.00150623254883
 10
44.25278171067044
 20
-16.89463450085608
 10
44.17911344259145
 20
-16.7879799117638
 10
44.10520596470958
 20
-16.68156618056938
 10
44.03104280342087
 20
-16.5754170225702
 10
43.9566074851213
 20
-16.46955615306365
 10
43.88188353620694
 20
-16.36400728734711
 10
43.80685448307381
 20
-16.25879414071798
 10
43.73150385211793
 20
-16.15394042847364
 10
43.6558151697353
 20
-16.04946986591147
 10
43.57977196232198
 20
-15.94540616832886
 10
43.50335775627399
 20
-15.84177305102319
 10
43.42655607798732
 20
-15.73859422929187
 10
43.34935045385804
 20
-15.63589341843226
 10
43.27172441028216
 20
-15.53369433374175
 10
43.1936614736557
 20
-15.43202069051773
 10
43.11514517037467
 20
-15.3308962040576
 10
43.03615902683513
 20
-15.23034458965872
 10
43.03615902683513
 20
-15.23034458965872
 10
42.88477481952719
 20
-15.03935746275726
 10
42.73267058586037
 20
-14.84862258981189
 10
42.57985418962993
 20
-14.65814881614458
 10
42.42633349463113
 20
-14.46794498707731
 10
42.27211636465923
 20
-14.27801994793206
 10
42.11721066350947
 20
-14.08838254403082
 10
41.96162425497713
 20
-13.89904162069554
 10
41.80536500285747
 20
-13.71000602324823
 10
41.64844077094574
 20
-13.52128459701084
 10
41.49085942303721
 20
-13.33288618730537
 10
41.33262882292712
 20
-13.14481963945378
 10
41.17375683441075
 20
-12.95709379877806
 10
41.01425132128334
 20
-12.76971751060018
 10
40.85412014734017
 20
-12.58269962024212
 10
40.69337117637648
 20
-12.39604897302586
 10
40.53201227218753
 20
-12.20977441427338
 10
40.3700512985686
 20
-12.02388478930665
 10
40.20749611931492
 20
-11.83838894344766
 10
40.04435459822177
 20
-11.65329572201837
 10
39.8806345990844
 20
-11.46861397034078
 10
39.71634398569808
 20
-11.28435253373685
 10
39.55149062185805
 20
-11.10052025752856
 10
39.38608237135957
 20
-10.9171259870379
 10
39.22012709799792
 20
-10.73417856758683
 10
39.05363266556835
 20
-10.55168684449735
 10
38.88660693786611
 20
-10.36965966309141
 10
38.71905777868646
 20
-10.18810586869101
 10
38.55099305182468
 20
-10.00703430661813
 10
38.382420621076
 20
-9.826453822194729
 10
38.2133483502357
 20
-9.646373260742794
 10
38.04378410309902
 20
-9.466801467584305
 10
37.87373574346124
 20
-9.287747288041238
 10
37.70321113511761
 20
-9.109219567435571
 10
37.53221814186338
 20
-8.931227151089283
 10
37.36076462749382
 20
-8.753778884324349
 10
37.18885845580418
 20
-8.576883612462749
 10
37.01650749058973
 20
-8.40055018082646
 10
36.84371959564572
 20
-8.224787434737461
 10
36.67050263476742
 20
-8.049604219517728
 10
36.49686447175007
 20
-7.875009380489241
 10
36.32281297038896
 20
-7.701011762973976
 10
36.32281297038897
 20
-7.701011762973975
 10
36.17901997535181
 20
-7.558219413158844
 10
36.03464267063163
 20
-7.415907540599731
 10
35.88969687965178
 20
-7.274069398489815
 10
35.7441984258356
 20
-7.13269824002227
 10
35.59816313260644
 20
-6.991787318390275
 10
35.45160682338764
 20
-6.851329886787006
 10
35.30454532160257
 20
-6.71131919840564
 10
35.15699445067455
 20
-6.571748506439354
 10
35.00897003402695
 20
-6.432611064081325
 10
34.86048789508311
 20
-6.29390012452473
 10
34.71156385726638
 20
-6.155608940962746
 10
34.56221374400011
 20
-6.01773076658855
 10
34.41245337870763
 20
-5.880258854595317
 10
34.26229858481232
 20
-5.743186458176226
 10
34.11176518573749
 20
-5.606506830524453
 10
33.96086900490651
 20
-5.470213224833175
 10
33.80962586574273
 20
-5.334298894295569
 10
33.65805159166949
 20
-5.198757092104812
 10
33.50616200611014
 20
-5.06358107145408
 10
33.35397293248803
 20
-4.928764085536552
 10
33.20150019422651
 20
-4.794299387545402
 10
33.04875961474893
 20
-4.660180230673809
 10
32.89576701747862
 20
-4.526399868114949
 10
32.74253822583894
 20
-4.392951553061999
 10
32.58908906325325
 20
-4.259828538708137
 10
32.43543535314488
 20
-4.127024078246538
 10
32.28159291893718
 20
-3.99453142487038
 10
32.12757758405351
 20
-3.86234383177284
 10
31.9734051719172
 20
-3.730454552147093
 10
31.81909150595161
 20
-3.598856839186319
 10
31.66465240958009
 20
-3.467543946083692
 10
31.51010370622598
 20
-3.336509126032391
 10
31.35546121931263
 20
-3.205745632225591
 10
31.20074077226339
 20
-3.075246717856471
 10
31.04595818850161
 20
-2.945005636118206
 10
30.89112929145063
 20
-2.815015640203974
 10
30.73626990453381
 20
-2.685269983306951
 10
30.58139585117448
 20
-2.555761918620315
 10
30.426522954796
 20
-2.426484699337242
 10
30.27166703882172
 20
-2.297431578650909
 10
30.11684392667498
 20
-2.168595809754493
 10
29.96206944177913
 20
-2.039970645841171
 10
29.80735940755753
 20
-1.91154934010412
 10
29.65272964743351
 20
-1.783325145736516
 10
29.49819598483042
 20
-1.655291315931538
 10
29.49819598483044
 20
-1.655291315931538
 10
29.4061463429738
 20
-1.579499508336992
 10
29.31346777756852
 20
-1.504034913675323
 10
29.22020993917808
 20
-1.428879168644213
 10
29.126422478366
 20
-1.354013909941345
 10
29.03215504569579
 20
-1.279420774264402
 10
28.93745729173094
 20
-1.205081398311066
 10
28.84237886703497
 20
-1.13097741877902
 10
28.74696942217139
 20
-1.057090472365947
 10
28.65127860770368
 20
-0.9834021957695293
 10
28.55535607419538
 20
-0.9098942256874497
 10
28.45925147220996
 20
-0.8365481988173911
 10
28.36301445231095
 20
-0.7633457518570362
 10
28.26669466506185
 20
-0.6902685215040674
 10
28.17034176102617
 20
-0.6172981444561678
 10
28.07400539076741
 20
-0.5444162574110197
 10
27.97773520484908
 20
-0.4716044970663063
 10
27.88158085383468
 20
-0.39884450011971
 10
27.78559198828772
 20
-0.3261179032689135
 10
27.68981825877171
 20
-0.2534063432115997
 10
27.59430931585014
 20
-0.1806914566454512
 10
27.49911481008653
 20
-0.1079548802681507
 10
27.40428439204439
 20
-0.035178250777381
 10
27.30986771228721
 20
0.0376567951291754
  0
LWPOLYLINE
  5
252
330
1F
100
AcDbEntity
  8
Vector Layer 1
 62
    18
420
        0
370
    30
100
AcDbPolyline
 90
      133
 70
     0
 43
0.0
 10
-46.06493051833624
 20
-17.08486006421162
 10
-46.15459770642007
 20
-16.96316716184613
 10
-46.24397554988897
 20
-16.84124965177902
 10
-46.33309035279885
 20
-16.71912795289226
 10
-46.42196841920561
 20
-16.59682248406781
 10
-46.51063605316514
 20
-16.47435366418764
 10
-46.59911955873336
 20
-16.35174191213371
 10
-46.68744523996616
 20
-16.22900764678799
 10
-46.77563940091945
 20
-16.10617128703244
 10
-46.86372834564914
 20
-15.98325325174902
 10
-46.95173837821111
 20
-15.86027395981972
 10
-47.03969580266128
 20
-15.73725383012648
 10
-47.12762692305555
 20
-15.61421328155127
 10
-47.21555804344982
 20
-15.49117273297607
 10
-47.30351546789998
 20
-15.36815260328283
 10
-47.39152550046195
 20
-15.24517331135352
 10
-47.47961444519164
 20
-15.12225527607011
 10
-47.56780860614493
 20
-14.99941891631456
 10
-47.65613428737774
 20
-14.87668465096884
 10
-47.74461779294596
 20
-14.75407289891491
 10
-47.8332854269055
 20
-14.63160407903474
 10
-47.92216349331225
 20
-14.50929861021029
 10
-48.01127829622213
 20
-14.38717691132352
 10
-48.10065613969103
 20
-14.26525940125642
 10
-48.19032332777486
 20
-14.14356649889093
 10
-48.28030616452952
 20
-14.02211862310903
 10
-48.37063095401092
 20
-13.90093619279267
 10
-48.46132400027495
 20
-13.78003962682383
 10
-48.55241160737751
 20
-13.65944934408448
 10
-48.64392007937452
 20
-13.53918576345657
 10
-48.73587572032188
 20
-13.41926930382207
 10
-48.82830483427547
 20
-13.29972038406294
 10
-48.92123372529122
 20
-13.18055942306117
 10
-49.01468869742501
 20
-13.06180683969869
 10
-49.10869605473276
 20
-12.9434830528575
 10
-49.20328210127036
 20
-12.82560848141954
 10
-49.29847314109372
 20
-12.70820354426678
 10
-49.29847314109371
 20
-12.70820354426678
 10
-49.43271078538219
 20
-12.54385365260622
 10
-49.5673559401789
 20
-12.37968049073405
 10
-49.70240742622268
 20
-12.21569737494594
 10
-49.83786406425232
 20
-12.05191762153754
 10
-49.97372467500666
 20
-11.88835454680452
 10
-50.10998807922451
 20
-11.72502146704253
 10
-50.24665309764469
 20
-11.56193169854724
 10
-50.38371855100603
 20
-11.39909855761432
 10
-50.52118326004732
 20
-11.23653536053941
 10
-50.6590460455074
 20
-11.07425542361819
 10
-50.79730572812508
 20
-10.91227206314631
 10
-50.93596112863918
 20
-10.75059859541944
 10
-51.07501106778852
 20
-10.58924833673323
 10
-51.21445436631192
 20
-10.42823460338335
 10
-51.35428984494819
 20
-10.26757071166545
 10
-51.49451632443615
 20
-10.10726997787521
 10
-51.63513262551463
 20
-9.94734571830827
 10
-51.77613756892243
 20
-9.787811249260304
 10
-51.91752997539838
 20
-9.62867988702697
 10
-52.05930866568129
 20
-9.46996494790393
 10
-52.20147246050999
 20
-9.311679748186845
 10
-52.34402018062329
 20
-9.153837604171375
 10
-52.48695064676001
 20
-8.996451832153182
 10
-52.63026267965896
 20
-8.839535748427927
 10
-52.77395510005897
 20
-8.683102669291271
 10
-52.91802672869884
 20
-8.527165911038874
 10
-53.06247638631742
 20
-8.371738789966398
 10
-53.2073028936535
 20
-8.216834622369505
 10
-53.35250507144591
 20
-8.062466724543854
 10
-53.49808174043346
 20
-7.908648412785109
 10
-53.64403172135498
 20
-7.755393003388929
 10
-53.79035383494927
 20
-7.602713812650976
 10
-53.93704690195517
 20
-7.45062415686691
 10
-54.08410974311149
 20
-7.299137352332394
 10
-54.23154117915704
 20
-7.148266715343087
 10
-54.37934003083064
 20
-6.998025562194651
 10
-54.52750511887112
 20
-6.848427209182748
 10
-54.67603526401728
 20
-6.699484972603038
 10
-54.82492928700796
 20
-6.551212168751184
 10
-54.82492928700796
 20
-6.551212168751179
 10
-54.95237945827049
 20
-6.425271022520626
 10
-55.08047230845883
 20
-6.299737982769909
 10
-55.2091884365677
 20
-6.17460282864735
 10
-55.33850844159181
 20
-6.049855339301273
 10
-55.46841292252588
 20
-5.925485293879999
 10
-55.59888247836461
 20
-5.801482471531851
 10
-55.72989770810271
 20
-5.677836651405153
 10
-55.8614392107349
 20
-5.554537612648226
 10
-55.99348758525588
 20
-5.431575134409393
 10
-56.12602343066037
 20
-5.308938995836977
 10
-56.25902734594308
 20
-5.186618976079301
 10
-56.39247993009872
 20
-5.064604854284686
 10
-56.52636178212201
 20
-4.942886409601456
 10
-56.66065350100764
 20
-4.821453421177933
 10
-56.79533568575035
 20
-4.70029566816244
 10
-56.93038893534482
 20
-4.5794029297033
 10
-57.06579384878579
 20
-4.458764984948834
 10
-57.20153102506795
 20
-4.338371613047367
 10
-57.33758106318602
 20
-4.218212593147219
 10
-57.47392456213471
 20
-4.098277704396715
 10
-57.61054212090873
 20
-3.978556725944176
 10
-57.7474143385028
 20
-3.859039436937925
 10
-57.88452181391162
 20
-3.739715616526285
 10
-58.0218451461299
 20
-3.620575043857579
 10
-58.15936493415237
 20
-3.501607498080129
 10
-58.29706177697373
 20
-3.382802758342257
 10
-58.43491627358868
 20
-3.264150603792286
 10
-58.57290902299194
 20
-3.145640813578539
 10
-58.71102062417822
 20
-3.027263166849339
 10
-58.84923167614225
 20
-2.909007442753008
 10
-58.9875227778787
 20
-2.790863420437868
 10
-59.12587452838232
 20
-2.672820879052243
 10
-59.26426752664781
 20
-2.554869597744455
 10
-59.40268237166988
 20
-2.436999355662826
 10
-59.54109966244324
 20
-2.319199931955679
 10
-59.67949999796259
 20
-2.201461105771338
 10
-59.81786397722267
 20
-2.083772656258123
 10
-59.95617219921816
 20
-1.966124362564359
 10
-60.09440526294379
 20
-1.848506003838367
 10
-60.23254376739426
 20
-1.73090735922847
 10
-60.37056831156429
 20
-1.613318207882992
 10
-60.50845949444859
 20
-1.495728328950253
 10
-60.64619791504187
 20
-1.378127501578578
 10
-60.78376417233885
 20
-1.260505504916288
 10
-60.92113886533422
 20
-1.142852118111707
 10
-61.05830259302271
 20
-1.025157120313157
 10
-61.19523595439902
 20
-0.9074102906689603
 10
-61.33191954845788
 20
-0.7896014083274397
 10
-61.46833397419397
 20
-0.6717202524369177
 10
-61.60445983060203
 20
-0.5537566021457172
 10
-61.74027771667676
 20
-0.4357002366021607
 10
-61.87576823141286
 20
-0.3175409349545708
 10
-62.01091197380506
 20
-0.19926847635127
 10
-62.14568954284807
 20
-0.0808726399405812
 10
-62.28008153753659
 20
0.0376567951291733
210
0.0
220
0.0
230
-1.0
  0
LWPOLYLINE
  5
253
330
1F
100
AcDbEntity
  8
Vector Layer 1
 62
    18
420
        0
370
    30
100
AcDbPolyline
 90
      155
 70
     0
 43
0.0
 10
-46.06493051833624
 20
-19.5699108001125
 10
-46.13730812408692
 20
-19.46395276537227
 10
-46.20938781822308
 20
-19.35777631340274
 10
-46.28119312008269
 20
-19.25139868766937
 10
-46.35274754900375
 20
-19.14483713163765
 10
-46.42407462432426
 20
-19.03810888877302
 10
-46.49519786538218
 20
-18.93123120254098
 10
-46.56614079151552
 20
-18.82422131640699
 10
-46.63692692206226
 20
-18.71709647383652
 10
-46.7075797763604
 20
-18.60987391829505
 10
-46.77812287374792
 20
-18.50257089324804
 10
-46.84857973356282
 20
-18.39520464216098
 10
-46.91897387514308
 20
-18.28779240849932
 10
-46.98932881782669
 20
-18.18035143572854
 10
-47.05966808095164
 20
-18.07289896731411
 10
-47.13001518385591
 20
-17.96545224672151
 10
-47.20039364587751
 20
-17.8580285174162
 10
-47.27082698635442
 20
-17.75064502286366
 10
-47.34133872462463
 20
-17.64331900652936
 10
-47.41195238002611
 20
-17.53606771187877
 10
-47.48269147189688
 20
-17.42890838237736
 10
-47.55357951957491
 20
-17.32185826149061
 10
-47.6246400423982
 20
-17.21493459268398
 10
-47.69589655970473
 20
-17.10815461942294
 10
-47.7673725908325
 20
-17.00153558517297
 10
-47.83909165511949
 20
-16.89509473339955
 10
-47.91107727190368
 20
-16.78884930756813
 10
-47.98335296052308
 20
-16.68281655114419
 10
-48.05594224031568
 20
-16.57701370759321
 10
-48.12886863061945
 20
-16.47145802038065
 10
-48.20215565077239
 20
-16.36616673297199
 10
-48.27582682011249
 20
-16.2611570888327
 10
-48.34990565797774
 20
-16.15644633142824
 10
-48.42441568370612
 20
-16.0520517042241
 10
-48.49938041663563
 20
-15.94799045068574
 10
-48.57482337610425
 20
-15.84427981427863
 10
-48.65076808144999
 20
-15.74093703846825
 10
-48.72723805201081
 20
-15.63797936672006
 10
-48.80425680712472
 20
-15.53542404249954
 10
-48.88184786612971
 20
-15.43328830927217
 10
-48.96003474836374
 20
-15.3315894105034
 10
-49.03884097316485
 20
-15.23034458965872
 10
-49.03884097316486
 20
-15.23034458965872
 10
-49.18726235003049
 20
-15.04150097791391
 10
-49.33630741600769
 20
-14.85312892806315
 10
-49.48597117561762
 20
-14.66522809899804
 10
-49.63624863338147
 20
-14.47779814961022
 10
-49.7871347938204
 20
-14.29083873879131
 10
-49.93862466145557
 20
-14.10434952543292
 10
-50.09071324080817
 20
-13.91833016842669
 10
-50.24339553639936
 20
-13.73278032666424
 10
-50.39666655275031
 20
-13.54769965903719
 10
-50.55052129438218
 20
-13.36308782443715
 10
-50.70495476581615
 20
-13.17894448175576
 10
-50.85996197157339
 20
-12.99526928988464
 10
-51.01553791617505
 20
-12.81206190771541
 10
-51.17167760414234
 20
-12.62932199413969
 10
-51.32837603999639
 20
-12.4470492080491
 10
-51.4856282282584
 20
-12.26524320833528
 10
-51.64342917344952
 20
-12.08390365388983
 10
-51.80177388009091
 20
-11.90303020360439
 10
-51.96065735270377
 20
-11.72262251637057
 10
-52.12007459580926
 20
-11.54268025108001
 10
-52.28002061392853
 20
-11.36320306662431
 10
-52.44049041158277
 20
-11.18419062189511
 10
-52.60147899329314
 20
-11.00564257578402
 10
-52.76298136358081
 20
-10.82755858718268
 10
-52.92499252696696
 20
-10.6499383149827
 10
-53.08750748797275
 20
-10.4727814180757
 10
-53.25052125111935
 20
-10.29608755535332
 10
-53.41402882092793
 20
-10.11985638570716
 10
-53.57802520191967
 20
-9.94408756802886
 10
-53.74250539861571
 20
-9.768780761210035
 10
-53.90746441553726
 20
-9.593935624142307
 10
-54.07289725720545
 20
-9.419551815717303
 10
-54.23879892814149
 20
-9.245628994826644
 10
-54.40516443286651
 20
-9.072166820361951
 10
-54.57198877590171
 20
-8.899164951214849
 10
-54.73926696176824
 20
-8.72662304627696
 10
-54.90699399498727
 20
-8.554540764439908
 10
-55.07516488007999
 20
-8.382917764595312
 10
-55.24377462156755
 20
-8.211753705634798
 10
-55.41281822397113
 20
-8.041048246449989
 10
-55.58229069181189
 20
-7.870801045932505
 10
-55.75218702961101
 20
-7.701011762973972
 10
-55.75218702961103
 20
-7.701011762973975
 10
-55.89598002464818
 20
-7.558219413158844
 10
-56.04035732936836
 20
-7.415907540599731
 10
-56.18530312034821
 20
-7.274069398489815
 10
-56.3308015741644
 20
-7.13269824002227
 10
-56.47683686739355
 20
-6.991787318390275
 10
-56.62339317661235
 20
-6.851329886787006
 10
-56.77045467839743
 20
-6.71131919840564
 10
-56.91800554932544
 20
-6.571748506439354
 10
-57.06602996597304
 20
-6.432611064081325
 10
-57.21451210491688
 20
-6.29390012452473
 10
-57.36343614273361
 20
-6.155608940962746
 10
-57.51278625599988
 20
-6.01773076658855
 10
-57.66254662129235
 20
-5.880258854595317
 10
-57.81270141518767
 20
-5.743186458176226
 10
-57.9632348142625
 20
-5.606506830524453
 10
-58.11413099509348
 20
-5.470213224833175
 10
-58.26537413425725
 20
-5.334298894295569
 10
-58.41694840833049
 20
-5.198757092104812
 10
-58.56883799388984
 20
-5.06358107145408
 10
-58.72102706751195
 20
-4.928764085536552
 10
-58.87349980577347
 20
-4.794299387545402
 10
-59.02624038525106
 20
-4.660180230673809
 10
-59.17923298252136
 20
-4.526399868114949
 10
-59.33246177416104
 20
-4.392951553061999
 10
-59.48591093674673
 20
-4.259828538708137
 10
-59.6395646468551
 20
-4.127024078246538
 10
-59.7934070810628
 20
-3.99453142487038
 10
-59.94742241594647
 20
-3.86234383177284
 10
-60.10159482808278
 20
-3.730454552147093
 10
-60.25590849404837
 20
-3.598856839186319
 10
-60.41034759041989
 20
-3.467543946083692
 10
-60.564896293774
 20
-3.336509126032391
 10
-60.71953878068735
 20
-3.205745632225591
 10
-60.87425922773659
 20
-3.075246717856471
 10
-61.02904181149838
 20
-2.945005636118206
 10
-61.18387070854936
 20
-2.815015640203974
 10
-61.33873009546618
 20
-2.685269983306951
 10
-61.49360414882551
 20
-2.555761918620315
 10
-61.64847704520399
 20
-2.426484699337242
 10
-61.80333296117827
 20
-2.297431578650909
 10
-61.95815607332501
 20
-2.168595809754493
 10
-62.11293055822086
 20
-2.039970645841171
 10
-62.26764059244246
 20
-1.91154934010412
 10
-62.42227035256648
 20
-1.783325145736516
 10
-62.57680401516957
 20
-1.655291315931538
 10
-62.57680401516956
 20
-1.655291315931538
 10
-62.66885365702619
 20
-1.579499508336992
 10
-62.76153222243148
 20
-1.504034913675323
 10
-62.85479006082191
 20
-1.428879168644213
 10
-62.94857752163399
 20
-1.354013909941345
 10
-63.04284495430421
 20
-1.279420774264402
 10
-63.13754270826905
 20
-1.205081398311066
 10
-63.23262113296502
 20
-1.13097741877902
 10
-63.32803057782861
 20
-1.057090472365947
 10
-63.42372139229631
 20
-0.9834021957695293
 10
-63.51964392580462
 20
-0.9098942256874497
 10
-63.61574852779003
 20
-0.8365481988173911
 10
-63.71198554768904
 20
-0.7633457518570362
 10
-63.80830533493814
 20
-0.6902685215040674
 10
-63.90465823897383
 20
-0.6172981444561678
 10
-64.00099460923257
 20
-0.5444162574110197
 10
-64.0972647951509
 20
-0.4716044970663063
 10
-64.19341914616531
 20
-0.39884450011971
 10
-64.28940801171227
 20
-0.3261179032689135
 10
-64.38518174122828
 20
-0.2534063432115997
 10
-64.48069068414985
 20
-0.1806914566454512
 10
-64.57588518991347
 20
-0.1079548802681507
 10
-64.67071560795561
 20
-0.035178250777381
 10
-64.76513228771278
 20
0.0376567951291754
210
0.0
220
0.0
230
-1.0
  0
LWPOLYLINE
  5
254
330
1F
100
AcDbEntity
  8
Vector Layer 1
 62
    18
420
        0
370
    30
100
AcDbPolyline
 90
      135
 70
     0
 43
0.0
 10
-46.06493051833624
 20
17.08486006421162
 10
-45.97456392905188
 20
16.96429314629512
 10
-45.88431608991487
 20
16.8433285117849
 10
-45.79417159209637
 20
16.7219961766444
 10
-45.70411502676751
 20
16.6003261568371
 10
-45.61413098509945
 20
16.47834846832644
 10
-45.52420405826332
 20
16.3560931270759
 10
-45.43431883743027
 20
16.23359014904892
 10
-45.34445991377143
 20
16.11086955020897
 10
-45.25461187845798
 20
15.9879613465195
 10
-45.16475932266103
 20
15.86489555394398
 10
-45.07488683755174
 20
15.74170218844586
 10
-44.98497901430126
 20
15.6184112659886
 10
-44.89502044408072
 20
15.49505280253567
 10
-44.80499571806127
 20
15.37165681405052
 10
-44.71488942741407
 20
15.24825331649661
 10
-44.62468616331024
 20
15.1248723258374
 10
-44.53437051692094
 20
15.00154385803634
 10
-44.4439270794173
 20
14.8782979290569
 10
-44.35334044197048
 20
14.75516455486254
 10
-44.26259519575163
 20
14.63217375141671
 10
-44.17167593193187
 20
14.50935553468288
 10
-44.08056724168236
 20
14.3867399206245
 10
-43.98925371617425
 20
14.26435692520503
 10
-43.89771994657867
 20
14.14223656438793
 10
-43.80595052406678
 20
14.02040885413667
 10
-43.71393003980971
 20
13.89890381041469
 10
-43.62164308497861
 20
13.77775144918546
 10
-43.52907425074463
 20
13.65698178641244
 10
-43.43620812827891
 20
13.53662483805908
 10
-43.34302930875259
 20
13.41671062008885
 10
-43.24952238333683
 20
13.2972691484652
 10
-43.15567194320276
 20
13.1783304391516
 10
-43.06146257952152
 20
13.0599245081115
 10
-42.96687888346427
 20
12.94208137130836
 10
-42.87190544620214
 20
12.82483104470564
 10
-42.77652685890628
 20
12.70820354426679
 10
-42.77652685890628
 20
12.70820354426678
 10
-42.64951106992585
 20
12.55386495166595
 10
-42.52214827954794
 20
12.39953651347417
 10
-42.39443527317109
 20
12.24523347962631
 10
-42.26636883619382
 20
12.09097110005723
 10
-42.13794575401463
 20
11.93676462470181
 10
-42.00916281203205
 20
11.78262930349491
 10
-41.88001679564458
 20
11.6285803863714
 10
-41.75050449025077
 20
11.47463312326615
 10
-41.62062268124911
 20
11.32080276411403
 10
-41.49036815403813
 20
11.16710455884991
 10
-41.35973769401635
 20
11.01355375740866
 10
-41.22872808658229
 20
10.86016560972513
 10
-41.09733611713447
 20
10.70695536573421
 10
-40.9655585710714
 20
10.55393827537077
 10
-40.8333922337916
 20
10.40112958856966
 10
-40.70083389069359
 20
10.24854455526576
 10
-40.56788032717589
 20
10.09619842539393
 10
-40.43452832863702
 20
9.944106448889057
 10
-40.3007746804755
 20
9.792283875685992
 10
-40.16661616808984
 20
9.640745955719609
 10
-40.03204957687856
 20
9.489507938924775
 10
-39.89707169224019
 20
9.338585075236361
 10
-39.76167929957324
 20
9.187992614589234
 10
-39.62586918427623
 20
9.037745806918263
 10
-39.48963813174767
 20
8.887859902158316
 10
-39.35298292738609
 20
8.738350150244263
 10
-39.21590035659
 20
8.589231801110971
 10
-39.07838720475793
 20
8.440520104693309
 10
-38.94044025728838
 20
8.292230310926145
 10
-38.80205629957989
 20
8.144377669744347
 10
-38.66323211703097
 20
7.996977431082785
 10
-38.52396449504013
 20
7.850044844876327
 10
-38.38425021900589
 20
7.703595161059841
 10
-38.24408607432678
 20
7.557643629568197
 10
-38.10346884640131
 20
7.412205500336261
 10
-37.96239532062801
 20
7.267296023298903
 10
-37.82086228240538
 20
7.122930448390991
 10
-37.67886651713195
 20
6.979124025547394
 10
-37.53640481020624
 20
6.835892004702979
 10
-37.39347394702676
 20
6.693249635792617
 10
-37.25007071299204
 20
6.551212168751175
 10
-37.25007071299204
 20
6.551212168751179
 10
-37.1216775825274
 20
6.425078710835979
 10
-36.99275935269847
 20
6.299510722117105
 10
-36.86333074591734
 20
6.174492348318024
 10
-36.73340648459609
 20
6.050007735162205
 10
-36.6030012911468
 20
5.926041028373115
 10
-36.47212988798155
 20
5.80257637367422
 10
-36.34080699751243
 20
5.679597916788989
 10
-36.20904734215152
 20
5.55708980344089
 10
-36.07686564431091
 20
5.435036179353389
 10
-35.94427662640267
 20
5.313421190249954
 10
-35.81129501083889
 20
5.192228981854053
 10
-35.67793552003165
 20
5.071443699889153
 10
-35.54421287639304
 20
4.951049490078721
 10
-35.41014180233513
 20
4.831030498146226
 10
-35.27573702027002
 20
4.711370869815135
 10
-35.14101325260977
 20
4.592054750808914
 10
-35.00598522176647
 20
4.473066286851032
 10
-34.87066765015222
 20
4.354389623664957
 10
-34.73507526017909
 20
4.236008906974154
 10
-34.59922277425916
 20
4.117908282502092
 10
-34.46312491480452
 20
4.000071895972239
 10
-34.32679640422725
 20
3.882483893108062
 10
-34.19025196493943
 20
3.765128419633029
 10
-34.05350631935314
 20
3.647989621270606
 10
-33.91657418988047
 20
3.531051643744262
 10
-33.77947029893351
 20
3.414298632777465
 10
-33.64220936892432
 20
3.29771473409368
 10
-33.504806122265
 20
3.181284093416377
 10
-33.36727528136763
 20
3.064990856469021
 10
-33.2296315686443
 20
2.948819168975082
 10
-33.09188970650707
 20
2.832753176658026
 10
-32.95406441736805
 20
2.716777025241321
 10
-32.8161704236393
 20
2.600874860448435
 10
-32.67822244773292
 20
2.485030828002834
 10
-32.54023521206099
 20
2.369229073627987
 10
-32.40222343903558
 20
2.25345374304736
 10
-32.26420185106878
 20
2.137688981984422
 10
-32.12618517057268
 20
2.02191893616264
 10
-31.98818811995936
 20
1.906127751305481
 10
-31.8502254216409
 20
1.790299573136413
 10
-31.71231179802938
 20
1.674418547378903
 10
-31.57446197153688
 20
1.558468819756419
 10
-31.43669066457549
 20
1.442434535992428
 10
-31.2990125995573
 20
1.326299841810398
 10
-31.16144249889437
 20
1.210048882933796
 10
-31.0239950849988
 20
1.093665805086091
 10
-30.88668508028268
 20
0.9771347539907482
 10
-30.74952720715808
 20
0.8604398753712361
 10
-30.61253618803708
 20
0.7435653149510222
 10
-30.47572674533177
 20
0.6264952184535739
 10
-30.33911360145423
 20
0.5092137316023589
 10
-30.20271147881654
 20
0.3917050001208444
 10
-30.06653509983079
 20
0.2739531697324983
 10
-29.93059918690906
 20
0.1559423861607877
 10
-29.79491846246343
 20
0.0376567951291803
210
0.0
220
0.0
230
-1.0
  0
LWPOLYLINE
  5
255
330
1F
100
AcDbEntity
  8
Vector Layer 1
 62
    18
420
        0
370
    30
100
AcDbPolyline
 90
      152
 70
     0
 43
0.0
 10
-46.06493051833624
 20
19.5699108001125
 10
-45.99188857403737
 20
19.46494223522426
 10
-45.91901926003499
 20
19.35962164579922
 10
-45.84630610272514
 20
19.25397274713478
 10
-45.77373262850382
 20
19.14801925452831
 10
-45.70128236376708
 20
19.04178488327721
 10
-45.62893883491094
 20
18.93529334867886
 10
-45.55668556833141
 20
18.82856836603064
 10
-45.48450609042452
 20
18.72163365062995
 10
-45.41238392758631
 20
18.61451291777416
 10
-45.34030260621279
 20
18.50722988276067
 10
-45.2682456527
 20
18.39980826088685
 10
-45.19619659344394
 20
18.29227176745011
 10
-45.12413895484066
 20
18.18464411774781
 10
-45.05205626328617
 20
18.07694902707735
 10
-44.9799320451765
 20
17.96921021073612
 10
-44.90774982690768
 20
17.8614513840215
 10
-44.83549313487573
 20
17.75369626223087
 10
-44.76314549547668
 20
17.64596856066163
 10
-44.69069043510653
 20
17.53829199461115
 10
-44.61811148016134
 20
17.43069027937683
 10
-44.54539215703713
 20
17.32318713025606
 10
-44.47251599212989
 20
17.21580626254621
 10
-44.3994665118357
 20
17.10857139154467
 10
-44.32622724255053
 20
17.00150623254883
 10
-44.25278171067044
 20
16.89463450085608
 10
-44.17911344259145
 20
16.7879799117638
 10
-44.10520596470958
 20
16.68156618056938
 10
-44.03104280342087
 20
16.5754170225702
 10
-43.9566074851213
 20
16.46955615306365
 10
-43.88188353620694
 20
16.36400728734711
 10
-43.80685448307381
 20
16.25879414071798
 10
-43.73150385211793
 20
16.15394042847364
 10
-43.6558151697353
 20
16.04946986591147
 10
-43.57977196232198
 20
15.94540616832886
 10
-43.50335775627399
 20
15.84177305102319
 10
-43.42655607798732
 20
15.73859422929187
 10
-43.34935045385804
 20
15.63589341843226
 10
-43.27172441028216
 20
15.53369433374175
 10
-43.1936614736557
 20
15.43202069051773
 10
-43.11514517037467
 20
15.3308962040576
 10
-43.03615902683513
 20
15.23034458965872
 10
-43.03615902683513
 20
15.23034458965872
 10
-42.88477481952719
 20
15.03935746275726
 10
-42.73267058586037
 20
14.84862258981189
 10
-42.57985418962993
 20
14.65814881614458
 10
-42.42633349463113
 20
14.46794498707731
 10
-42.27211636465923
 20
14.27801994793206
 10
-42.11721066350947
 20
14.08838254403082
 10
-41.96162425497713
 20
13.89904162069554
 10
-41.80536500285747
 20
13.71000602324823
 10
-41.64844077094574
 20
13.52128459701084
 10
-41.49085942303721
 20
13.33288618730537
 10
-41.33262882292712
 20
13.14481963945378
 10
-41.17375683441075
 20
12.95709379877806
 10
-41.01425132128334
 20
12.76971751060018
 10
-40.85412014734017
 20
12.58269962024212
 10
-40.69337117637648
 20
12.39604897302586
 10
-40.53201227218753
 20
12.20977441427338
 10
-40.3700512985686
 20
12.02388478930665
 10
-40.20749611931492
 20
11.83838894344766
 10
-40.04435459822177
 20
11.65329572201837
 10
-39.8806345990844
 20
11.46861397034078
 10
-39.71634398569808
 20
11.28435253373685
 10
-39.55149062185805
 20
11.10052025752856
 10
-39.38608237135957
 20
10.9171259870379
 10
-39.22012709799792
 20
10.73417856758683
 10
-39.05363266556835
 20
10.55168684449735
 10
-38.88660693786611
 20
10.36965966309141
 10
-38.71905777868646
 20
10.18810586869101
 10
-38.55099305182468
 20
10.00703430661813
 10
-38.382420621076
 20
9.826453822194729
 10
-38.2133483502357
 20
9.646373260742794
 10
-38.04378410309902
 20
9.466801467584305
 10
-37.87373574346124
 20
9.287747288041238
 10
-37.70321113511761
 20
9.109219567435571
 10
-37.53221814186338
 20
8.931227151089283
 10
-37.36076462749382
 20
8.753778884324349
 10
-37.18885845580418
 20
8.576883612462749
 10
-37.01650749058973
 20
8.40055018082646
 10
-36.84371959564572
 20
8.224787434737461
 10
-36.67050263476742
 20
8.049604219517728
 10
-36.49686447175007
 20
7.875009380489241
 10
-36.32281297038896
 20
7.701011762973976
 10
-36.32281297038897
 20
7.701011762973975
 10
-36.16503730363394
 20
7.544303228750547
 10
-36.00670677187831
 20
7.388151696132411
 10
-35.84783067856032
 20
7.232549903218984
 10
-35.68841832711825
 20
7.077490588109681
 10
-35.52847902099035
 20
6.92296648890392
 10
-35.3680220636149
 20
6.768970343701116
 10
-35.20705675843017
 20
6.615494890600686
 10
-35.0455924088744
 20
6.462532867702046
 10
-34.88363831838587
 20
6.310077013104613
 10
-34.72120379040285
 20
6.158120064907803
 10
-34.55829812836359
 20
6.006654761211033
 10
-34.39493063570636
 20
5.855673840113718
 10
-34.23111061586943
 20
5.705170039715276
 10
-34.06684737229106
 20
5.555136098115122
 10
-33.90215020840952
 20
5.405564753412673
 10
-33.73702842766306
 20
5.256448743707346
 10
-33.57149133348997
 20
5.107780807098556
 10
-33.40554822932849
 20
4.959553681685721
 10
-33.2392084186169
 20
4.811760105568256
 10
-33.07248120479346
 20
4.664392816845579
 10
-32.90537589129643
 20
4.517444553617104
 10
-32.73790178156409
 20
4.370908053982249
 10
-32.57006817903468
 20
4.224776056040431
 10
-32.40188438714648
 20
4.079041297891064
 10
-32.23335970933776
 20
3.933696517633567
 10
-32.06450344904677
 20
3.788734453367355
 10
-31.89532490971178
 20
3.644147843191844
 10
-31.72583339477107
 20
3.499929425206452
 10
-31.55603820766288
 20
3.356071937510593
 10
-31.38594865182549
 20
3.212568118203686
 10
-31.21557403069716
 20
3.069410705385145
 10
-31.04492364771616
 20
2.926592437154388
 10
-30.87400680632074
 20
2.784106051610831
 10
-30.70283280994919
 20
2.64194428685389
 10
-30.53141096203975
 20
2.500099880982982
 10
-30.35975056603069
 20
2.358565572097523
 10
-30.18786092536029
 20
2.217334098296929
 10
-30.0157513434668
 20
2.076398197680617
 10
-29.84343112378848
 20
1.935750608348003
 10
-29.67090956976361
 20
1.795384068398504
 10
-29.49819598483045
 20
1.655291315931536
 10
-29.49819598483044
 20
1.655291315931538
 10
-29.41337632981572
 20
1.587079957553291
 10
-29.32811385061111
 20
1.519440755232923
 10
-29.24243681259042
 20
1.452337188370995
 10
-29.15637348112749
 20
1.385732736368068
 10
-29.06995212159613
 20
1.319590878624703
 10
-28.98320099937017
 20
1.25387509454146
 10
-28.89614837982343
 20
1.188548863518901
 10
-28.80882252832974
 20
1.123575664957587
 10
-28.72125171026291
 20
1.058918978258078
 10
-28.63346419099677
 20
0.9945422828209355
 10
-28.54548823590516
 20
0.9304090580467201
 10
-28.45735211036187
 20
0.8664827833359927
 10
-28.36908407974074
 20
0.8027269380893146
 10
-28.28071240941559
 20
0.7391050017072464
 10
-28.19226536476025
 20
0.675580453590349
 10
-28.10377121114854
 20
0.6121167731391834
 10
-28.01525821395428
 20
0.5486774397543107
 10
-27.92675463855129
 20
0.4852259328362915
 10
-27.83828875031341
 20
0.4217257317856868
 10
-27.74988881461444
 20
0.3581403160030577
 10
-27.66158309682821
 20
0.2944331648889649
 10
-27.57339986232855
 20
0.2305677578439694
 10
-27.48536737648929
 20
0.1665075742686321
 10
-27.39751390468423
 20
0.1022160935635138
 10
-27.30986771228721
 20
0.0376567951291757
210
0.0
220
0.0
230
-1.0
  0
LWPOLYLINE
  5
256
330
1F
100
AcDbEntity
  8
Vector Layer 1
 62
    18
420
        0
370
    30
100
AcDbPolyline
 90
      134
 70
     0
 43
0.0
 10
46.06493051833624
 20
17.08486006421162
 10
46.15459770642007
 20
16.96316716184613
 10
46.24397554988897
 20
16.84124965177902
 10
46.33309035279885
 20
16.71912795289226
 10
46.42196841920561
 20
16.59682248406781
 10
46.51063605316514
 20
16.47435366418764
 10
46.59911955873336
 20
16.35174191213371
 10
46.68744523996616
 20
16.22900764678799
 10
46.77563940091945
 20
16.10617128703244
 10
46.86372834564914
 20
15.98325325174902
 10
46.95173837821111
 20
15.86027395981972
 10
47.03969580266128
 20
15.73725383012648
 10
47.12762692305555
 20
15.61421328155127
 10
47.21555804344982
 20
15.49117273297607
 10
47.30351546789998
 20
15.36815260328283
 10
47.39152550046195
 20
15.24517331135352
 10
47.47961444519164
 20
15.12225527607011
 10
47.56780860614493
 20
14.99941891631456
 10
47.65613428737774
 20
14.87668465096884
 10
47.74461779294596
 20
14.75407289891491
 10
47.8332854269055
 20
14.63160407903474
 10
47.92216349331225
 20
14.50929861021029
 10
48.01127829622213
 20
14.38717691132352
 10
48.10065613969103
 20
14.26525940125642
 10
48.19032332777486
 20
14.14356649889093
 10
48.28030616452952
 20
14.02211862310903
 10
48.37063095401092
 20
13.90093619279267
 10
48.46132400027495
 20
13.78003962682383
 10
48.55241160737751
 20
13.65944934408448
 10
48.64392007937452
 20
13.53918576345657
 10
48.73587572032188
 20
13.41926930382207
 10
48.82830483427547
 20
13.29972038406294
 10
48.92123372529122
 20
13.18055942306117
 10
49.01468869742501
 20
13.06180683969869
 10
49.10869605473276
 20
12.9434830528575
 10
49.20328210127036
 20
12.82560848141954
 10
49.29847314109372
 20
12.70820354426678
 10
49.29847314109371
 20
12.70820354426678
 10
49.42930397900329
 20
12.54798559962259
 10
49.56043515402108
 20
12.38798334391788
 10
49.69187263372657
 20
12.2282052274601
 10
49.82362238569923
 20
12.06865970055668
 10
49.95569037751849
 20
11.90935521351506
 10
50.08808257676385
 20
11.75030021664266
 10
50.22080495101477
 20
11.59150316024693
 10
50.35386346785069
 20
11.4329724946353
 10
50.4872640948511
 20
11.27471667011519
 10
50.62101279959547
 20
11.11674413699405
 10
50.75511554966325
 20
10.95906334557931
 10
50.88957831263389
 20
10.8016827461784
 10
51.02440705608689
 20
10.64461078909876
 10
51.15960774760169
 20
10.48785592464782
 10
51.29518635475776
 20
10.33142660313301
 10
51.43114884513457
 20
10.17533127486178
 10
51.56750118631158
 20
10.01957839014154
 10
51.70424934586826
 20
9.864176399279747
 10
51.84139929138407
 20
9.70913375258382
 10
51.97895699043847
 20
9.554458900361199
 10
52.11692841061094
 20
9.400160292919316
 10
52.25531951948094
 20
9.246246380565606
 10
52.39413628462793
 20
9.092725613607504
 10
52.53338467363137
 20
8.939606442352442
 10
52.67307065407074
 20
8.786897317107856
 10
52.81320019352549
 20
8.634606688181177
 10
52.9537792595751
 20
8.482743005879843
 10
53.09481381979902
 20
8.331314720511285
 10
53.23630984177672
 20
8.180330282382938
 10
53.37827329308767
 20
8.029798141802237
 10
53.52071014131134
 20
7.879726749076614
 10
53.66362635402716
 20
7.730124554513505
 10
53.80702789881464
 20
7.581000008420343
 10
53.95092074325322
 20
7.432361561104561
 10
54.09531085492237
 20
7.284217662873595
 10
54.24020420140156
 20
7.136576764034877
 10
54.38560675027025
 20
6.989447314895843
 10
54.5315244691079
 20
6.842837765763926
 10
54.67796332549398
 20
6.69675656694656
 10
54.82492928700796
 20
6.551212168751179
 10
54.82492928700796
 20
6.551212168751179
 10
54.95332241747259
 20
6.425078710835979
 10
55.08224064730153
 20
6.299510722117105
 10
55.21166925408266
 20
6.174492348318024
 10
55.34159351540391
 20
6.050007735162205
 10
55.4719987088532
 20
5.926041028373115
 10
55.60287011201844
 20
5.80257637367422
 10
55.73419300248756
 20
5.679597916788989
 10
55.86595265784847
 20
5.55708980344089
 10
55.99813435568909
 20
5.435036179353389
 10
56.13072337359732
 20
5.313421190249954
 10
56.2637049891611
 20
5.192228981854053
 10
56.39706447996834
 20
5.071443699889153
 10
56.53078712360695
 20
4.951049490078721
 10
56.66485819766486
 20
4.831030498146226
 10
56.79926297972998
 20
4.711370869815135
 10
56.93398674739023
 20
4.592054750808914
 10
57.06901477823352
 20
4.473066286851032
 10
57.20433234984778
 20
4.354389623664957
 10
57.33992473982091
 20
4.236008906974154
 10
57.47577722574083
 20
4.117908282502092
 10
57.61187508519547
 20
4.000071895972239
 10
57.74820359577275
 20
3.882483893108062
 10
57.88474803506057
 20
3.765128419633029
 10
58.02149368064686
 20
3.647989621270606
 10
58.15842581011953
 20
3.531051643744262
 10
58.29552970106649
 20
3.414298632777465
 10
58.43279063107567
 20
3.29771473409368
 10
58.57019387773499
 20
3.181284093416377
 10
58.70772471863237
 20
3.064990856469021
 10
58.8453684313557
 20
2.948819168975082
 10
58.98311029349293
 20
2.832753176658026
 10
59.12093558263195
 20
2.716777025241321
 10
59.25882957636069
 20
2.600874860448435
 10
59.39677755226707
 20
2.485030828002834
 10
59.53476478793901
 20
2.369229073627987
 10
59.67277656096442
 20
2.25345374304736
 10
59.81079814893121
 20
2.137688981984422
 10
59.94881482942731
 20
2.02191893616264
 10
60.08681188004064
 20
1.906127751305481
 10
60.2247745783591
 20
1.790299573136413
 10
60.36268820197062
 20
1.674418547378903
 10
60.50053802846313
 20
1.558468819756419
 10
60.63830933542451
 20
1.442434535992428
 10
60.77598740044272
 20
1.326299841810398
 10
60.91355750110563
 20
1.210048882933796
 10
61.0510049150012
 20
1.093665805086091
 10
61.18831491971732
 20
0.9771347539907482
 10
61.32547279284193
 20
0.8604398753712361
 10
61.46246381196293
 20
0.7435653149510222
 10
61.59927325466824
 20
0.6264952184535739
 10
61.73588639854578
 20
0.5092137316023589
 10
61.87228852118347
 20
0.3917050001208444
 10
62.00846490016922
 20
0.2739531697324983
 10
62.14440081309096
 20
0.1559423861607877
 10
62.28008153753658
 20
0.0376567951291803
  0
LWPOLYLINE
  5
257
330
1F
100
AcDbEntity
  8
Vector Layer 1
 62
    18
420
        0
370
    30
100
AcDbPolyline
 90
      153
 70
     0
 43
0.0
 10
46.06493051833624
 20
19.5699108001125
 10
46.13730812408692
 20
19.46395276537227
 10
46.20938781822308
 20
19.35777631340274
 10
46.28119312008269
 20
19.25139868766937
 10
46.35274754900375
 20
19.14483713163765
 10
46.42407462432426
 20
19.03810888877302
 10
46.49519786538218
 20
18.93123120254098
 10
46.56614079151552
 20
18.82422131640699
 10
46.63692692206226
 20
18.71709647383652
 10
46.7075797763604
 20
18.60987391829505
 10
46.77812287374792
 20
18.50257089324804
 10
46.84857973356282
 20
18.39520464216098
 10
46.91897387514308
 20
18.28779240849932
 10
46.98932881782669
 20
18.18035143572854
 10
47.05966808095164
 20
18.07289896731411
 10
47.13001518385591
 20
17.96545224672151
 10
47.20039364587751
 20
17.8580285174162
 10
47.27082698635442
 20
17.75064502286366
 10
47.34133872462463
 20
17.64331900652936
 10
47.41195238002611
 20
17.53606771187877
 10
47.48269147189688
 20
17.42890838237736
 10
47.55357951957491
 20
17.32185826149061
 10
47.6246400423982
 20
17.21493459268398
 10
47.69589655970473
 20
17.10815461942294
 10
47.7673725908325
 20
17.00153558517297
 10
47.83909165511949
 20
16.89509473339955
 10
47.91107727190368
 20
16.78884930756813
 10
47.98335296052308
 20
16.68281655114419
 10
48.05594224031568
 20
16.57701370759321
 10
48.12886863061945
 20
16.47145802038065
 10
48.20215565077239
 20
16.36616673297199
 10
48.27582682011249
 20
16.2611570888327
 10
48.34990565797774
 20
16.15644633142824
 10
48.42441568370612
 20
16.0520517042241
 10
48.49938041663563
 20
15.94799045068574
 10
48.57482337610425
 20
15.84427981427863
 10
48.65076808144999
 20
15.74093703846825
 10
48.72723805201081
 20
15.63797936672006
 10
48.80425680712472
 20
15.53542404249954
 10
48.88184786612971
 20
15.43328830927217
 10
48.96003474836374
 20
15.3315894105034
 10
49.03884097316485
 20
15.23034458965872
 10
49.03884097316486
 20
15.23034458965872
 10
49.18726235003049
 20
15.04150097791391
 10
49.33630741600769
 20
14.85312892806315
 10
49.48597117561762
 20
14.66522809899804
 10
49.63624863338147
 20
14.47779814961022
 10
49.7871347938204
 20
14.29083873879131
 10
49.93862466145557
 20
14.10434952543292
 10
50.09071324080817
 20
13.91833016842669
 10
50.24339553639936
 20
13.73278032666424
 10
50.39666655275031
 20
13.54769965903719
 10
50.55052129438218
 20
13.36308782443715
 10
50.70495476581615
 20
13.17894448175576
 10
50.85996197157339
 20
12.99526928988464
 10
51.01553791617505
 20
12.81206190771541
 10
51.17167760414234
 20
12.62932199413969
 10
51.32837603999639
 20
12.4470492080491
 10
51.4856282282584
 20
12.26524320833528
 10
51.64342917344952
 20
12.08390365388983
 10
51.80177388009091
 20
11.90303020360439
 10
51.96065735270377
 20
11.72262251637057
 10
52.12007459580926
 20
11.54268025108001
 10
52.28002061392853
 20
11.36320306662431
 10
52.44049041158277
 20
11.18419062189511
 10
52.60147899329314
 20
11.00564257578402
 10
52.76298136358081
 20
10.82755858718268
 10
52.92499252696696
 20
10.6499383149827
 10
53.08750748797275
 20
10.4727814180757
 10
53.25052125111935
 20
10.29608755535332
 10
53.41402882092793
 20
10.11985638570716
 10
53.57802520191967
 20
9.94408756802886
 10
53.74250539861571
 20
9.768780761210035
 10
53.90746441553726
 20
9.593935624142307
 10
54.07289725720545
 20
9.419551815717303
 10
54.23879892814149
 20
9.245628994826644
 10
54.40516443286651
 20
9.072166820361951
 10
54.57198877590171
 20
8.899164951214849
 10
54.73926696176824
 20
8.72662304627696
 10
54.90699399498727
 20
8.554540764439908
 10
55.07516488007999
 20
8.382917764595312
 10
55.24377462156755
 20
8.211753705634798
 10
55.41281822397113
 20
8.041048246449989
 10
55.58229069181189
 20
7.870801045932505
 10
55.75218702961101
 20
7.701011762973972
 10
55.75218702961103
 20
7.701011762973975
 10
55.90996269636605
 20
7.544303228750547
 10
56.06829322812169
 20
7.388151696132411
 10
56.22716932143967
 20
7.232549903218984
 10
56.38658167288174
 20
7.077490588109681
 10
56.54652097900964
 20
6.92296648890392
 10
56.7069779363851
 20
6.768970343701116
 10
56.86794324156983
 20
6.615494890600686
 10
57.0294075911256
 20
6.462532867702046
 10
57.19136168161412
 20
6.310077013104613
 10
57.35379620959715
 20
6.158120064907803
 10
57.5167018716364
 20
6.006654761211033
 10
57.68006936429364
 20
5.855673840113718
 10
57.84388938413057
 20
5.705170039715276
 10
58.00815262770893
 20
5.555136098115122
 10
58.17284979159047
 20
5.405564753412673
 10
58.33797157233693
 20
5.256448743707346
 10
58.50350866651003
 20
5.107780807098556
 10
58.66945177067151
 20
4.959553681685721
 10
58.8357915813831
 20
4.811760105568256
 10
59.00251879520654
 20
4.664392816845579
 10
59.16962410870357
 20
4.517444553617104
 10
59.33709821843591
 20
4.370908053982249
 10
59.50493182096532
 20
4.224776056040431
 10
59.67311561285352
 20
4.079041297891064
 10
59.84164029066224
 20
3.933696517633567
 10
60.01049655095322
 20
3.788734453367355
 10
60.17967509028821
 20
3.644147843191844
 10
60.34916660522893
 20
3.499929425206452
 10
60.51896179233711
 20
3.356071937510593
 10
60.68905134817451
 20
3.212568118203686
 10
60.85942596930284
 20
3.069410705385145
 10
61.03007635228384
 20
2.926592437154388
 10
61.20099319367925
 20
2.784106051610831
 10
61.37216719005081
 20
2.64194428685389
 10
61.54358903796024
 20
2.500099880982982
 10
61.7152494339693
 20
2.358565572097523
 10
61.8871390746397
 20
2.217334098296929
 10
62.0592486565332
 20
2.076398197680617
 10
62.23156887621151
 20
1.935750608348003
 10
62.40409043023638
 20
1.795384068398504
 10
62.57680401516954
 20
1.655291315931536
 10
62.57680401516956
 20
1.655291315931538
 10
62.66162367018427
 20
1.587079957553291
 10
62.74688614938889
 20
1.519440755232923
 10
62.83256318740957
 20
1.452337188370995
 10
62.9186265188725
 20
1.385732736368068
 10
63.00504787840386
 20
1.319590878624703
 10
63.09179900062982
 20
1.25387509454146
 10
63.17885162017656
 20
1.188548863518901
 10
63.26617747167026
 20
1.123575664957587
 10
63.35374828973709
 20
1.058918978258078
 10
63.44153580900322
 20
0.9945422828209355
 10
63.52951176409485
 20
0.9304090580467201
 10
63.61764788963814
 20
0.8664827833359927
 10
63.70591592025927
 20
0.8027269380893146
 10
63.79428759058441
 20
0.7391050017072464
 10
63.88273463523975
 20
0.675580453590349
 10
63.97122878885146
 20
0.6121167731391834
 10
64.05974178604572
 20
0.5486774397543107
 10
64.1482453614487
 20
0.4852259328362915
 10
64.23671124968659
 20
0.4217257317856868
 10
64.32511118538556
 20
0.3581403160030577
 10
64.41341690317179
 20
0.2944331648889649
 10
64.50160013767145
 20
0.2305677578439694
 10
64.58963262351073
 20
0.1665075742686321
 10
64.67748609531579
 20
0.1022160935635138
 10
64.7651322877128
 20
0.0376567951291757
  0
LWPOLYLINE
  5
258
330
1F
100
AcDbEntity
  8
Vector Layer 1
 62
    18
420
        0
370
    30
100
AcDbPolyline
 90
        8
 70
     0
 43
0.0
 10
-9.445106202560566
 20
-36.59550331154103
 10
-9.445106202560566
 20
36.59714710845334
 10
-9.445106202560566
 20
36.59714710845334
 10
-82.63832944884471
 20
36.59714710845335
 10
-82.63832944884471
 20
36.59714710845335
 10
-82.63832944884471
 20
-36.59550331154103
 10
-82.63832944884471
 20
-36.59550331154103
 10
-9.445106202560566
 20
-36.59550331154103
210
0.0
220
0.0
230
-1.0
  0
LWPOLYLINE
  5
259
330
1F
100
AcDbEntity
  8
Vector Layer 1
 62
    18
420
        0
370
    30
100
AcDbPolyline
 90
        8
 70
     0
 43
0.0
 10
-11.81349841886064
 20
-34.21063857464301
 10
-11.81349841886064
 20
34.29354720226134
 10
-11.81349841886064
 20
34.29354720226134
 10
-80.30632164641771
 20
34.29354720226135
 10
-80.30632164641771
 20
34.29354720226135
 10
-80.30632164641771
 20
-34.21063857464302
 10
-80.30632164641771
 20
-34.21063857464302
 10
-11.81349841886064
 20
-34.21063857464301
210
0.0
220
0.0
230
-1.0
  0
LWPOLYLINE
  5
25A
330
1F
100
AcDbEntity
  8
Vector Layer 1
 62
    18
420
        0
370
    30
100
AcDbPolyline
 90
        8
 70
     0
 43
0.0
 10
-15.13037650471273
 20
-30.90628272743679
 10
-15.13037650471273
 20
30.96380646324181
 10
-15.13037650471273
 20
30.96380646324181
 10
-77.0022810999346
 20
30.96380646324181
 10
-77.0022810999346
 20
30.96380646324181
 10
-77.0022810999346
 20
-30.90628272743679
 10
-77.0022810999346
 20
-30.90628272743679
 10
-15.13037650471273
 20
-30.90628272743679
210
0.0
220
0.0
230
-1.0
  0
LWPOLYLINE
  5
25B
330
1F
100
AcDbEntity
  8
Vector Layer 1
 62
    18
420
        0
370
    30
100
AcDbPolyline
 90
        8
 70
     0
 43
0.0
 10
37.12128402658165
 20
-44.44999999999999
 10
37.12128402658165
 20
44.44999999999999
 10
37.12128402658165
 20
44.44999999999999
 10
18.07128402658158
 20
44.45
 10
18.07128402658158
 20
44.45
 10
18.07128402658157
 20
-44.44999999999999
 10
18.07128402658157
 20
-44.44999999999999
 10
37.12128402658165
 20
-44.44999999999999
210
0.0
220
0.0
230
-1.0
  0
LWPOLYLINE
  5
25C
330
1F
100
AcDbEntity
  8
Vector Layer 1
 62
    18
420
        0
370
    30
100
AcDbPolyline
 90
        4
 70
     0
 43
0.0
 10
19.57536819832809
 20
-36.57018855174187
 10
18.07188002169761
 20
-36.58533174921626
 10
18.07188002169761
 20
-36.58533174921626
 10
18.07188002169761
 20
-44.44999999999998
210
0.0
220
0.0
230
-1.0
  0
LWPOLYLINE
  5
25D
330
1F
100
AcDbEntity
  8
Vector Layer 1
 62
    18
420
        0
370
    30
100
AcDbPolyline
 90
      306
 70
     0
 43
0.0
 10
-18.07188002169761
 20
44.44999999999999
 10
-18.07188002169761
 20
36.58533174922589
 10
-18.07188002169761
 20
36.58533174922589
 10
-19.61359783784184
 20
36.53116736733351
 10
-19.61359783784184
 20
36.53116736733351
 10
-19.67528150082264
 20
36.5149180527658
 10
-19.67528150082264
 20
36.5149180527658
 10
-21.28083469272289
 20
34.30501127155654
 10
-21.28083469272289
 20
34.30501127155654
 10
-21.31505846977863
 20
34.2562633278534
 10
-21.31505846977863
 20
34.2562633278534
 10
-21.13597162366543
 20
33.95294278925605
 10
-21.13597162366543
 20
33.95294278925605
 10
-21.02635993064079
 20
33.70378663255108
 10
-21.02635993064079
 20
33.70378663255108
 10
-20.9509884789649
 20
33.4383811612784
 10
-20.9509884789649
 20
33.4383811612784
 10
-20.91252524108324
 20
33.17297569000572
 10
-20.91252524108324
 20
33.17297569000572
 10
-20.90943506360683
 20
32.89673734235457
 10
-20.90943506360683
 20
32.89673734235457
 10
-20.94321487248573
 20
32.62591543289265
 10
-20.94321487248573
 20
32.62591543289265
 10
-21.01356812120113
 20
32.36050996161997
 10
-21.01356812120113
 20
32.36050996161997
 10
-21.11930710971985
 20
32.10593736672577
 10
-21.11930710971985
 20
32.10593736672577
 10
-21.25434989035759
 20
31.87303052458851
 10
-21.25434989035759
 20
31.87303052458851
 10
-21.42265357077751
 20
31.65637299701898
 10
-21.42265357077751
 20
31.65637299701898
 10
-21.6285329312149
 20
31.45596478401716
 10
-21.6285329312149
 20
31.45596478401716
 10
-21.85000000298652
 20
31.29347163834002
 10
-21.85000000298652
 20
31.29347163834002
 10
-22.0985355079237
 20
31.15806068360905
 10
-22.0985355079237
 20
31.15806068360905
 10
-22.3759406775299
 20
31.05514835801353
 10
-22.3759406775299
 20
31.05514835801353
 10
-22.58020578027401
 20
31.00640041431038
 10
-22.58020578027401
 20
31.00640041431038
 10
-23.60791981816921
 20
30.952236032418
 10
-23.60791981816921
 20
30.952236032418
 10
-23.62841199637089
 20
30.93598671785028
 10
-23.62841199637089
 20
30.93598671785028
 10
-23.62841199637089
 20
28.18985255590643
 10
-23.62841199637089
 20
28.18985255590643
 10
-23.55134093762073
 20
28.11402242125709
 10
-23.55134093762073
 20
28.11402242125709
 10
-23.50719581545028
 20
28.07069091574319
 10
-23.50719581545028
 20
28.07069091574319
 10
-23.39463001192245
 20
28.01111009566156
 10
-23.39463001192245
 20
28.01111009566156
 10
-23.26981439591083
 20
27.89736489368756
 10
-23.26981439591083
 20
27.89736489368756
 10
-23.12564396262798
 20
27.69695668068574
 10
-23.12564396262798
 20
27.69695668068574
 10
-22.98377815187607
 20
27.42613477122382
 10
-22.98377815187607
 20
27.42613477122382
 10
-22.84245963693294
 20
27.07406628892333
 10
-22.84245963693294
 20
27.07406628892333
 10
-22.71836882830295
 20
26.67324986291969
 10
-22.71836882830295
 20
26.67324986291969
 10
-22.42647356689605
 20
25.48163346128725
 10
-22.42647356689605
 20
25.48163346128725
 10
-22.15933681727085
 20
24.4958417108454
 10
-22.15933681727085
 20
24.4958417108454
 10
-21.91157267392311
 20
23.68337598245922
 10
-21.91157267392311
 20
23.68337598245922
 10
-21.66059553325805
 20
22.95757326510091
 10
-21.66059553325805
 20
22.95757326510091
 10
-21.41419508755836
 20
22.33468287333817
 10
-21.41419508755836
 20
22.33468287333817
 10
-21.1781582519475
 20
21.81470480717102
 10
-21.1781582519475
 20
21.81470480717102
 10
-20.9326718583766
 20
21.34347468470704
 10
-20.9326718583766
 20
21.34347468470704
 10
-20.6814076334301
 20
20.92640894413547
 10
-20.6814076334301
 20
20.92640894413547
 10
-20.41188791394863
 20
20.54184183269934
 10
-20.41188791394863
 20
20.54184183269934
 10
-20.14261515886221
 20
20.21685554134487
 10
-20.14261515886221
 20
20.21685554134487
 10
-19.86895003319416
 20
19.93520075550432
 10
-19.86895003319416
 20
19.93520075550432
 10
-19.59359239712987
 20
19.69687747517771
 10
-19.59359239712987
 20
19.69687747517771
 10
-19.32875222713384
 20
19.51271857674352
 10
-19.32875222713384
 20
19.51271857674352
 10
-19.18656706587109
 20
19.37730762201248
 10
-19.18656706587109
 20
19.37730762201248
 10
-19.07078495324287
 20
19.21481447633525
 10
-19.07078495324287
 20
19.21481447633525
 10
-18.97594901696477
 20
19.00898982514408
 10
-18.97594901696477
 20
19.00898982514408
 10
-18.90939561352763
 20
18.76525010662823
 10
-18.90939561352763
 20
18.76525010662823
 10
-18.87312269434962
 20
18.48359532078769
 10
-18.87312269434962
 20
18.48359532078769
 10
-18.86776479706797
 20
18.11527752391929
 10
-18.86776479706797
 20
18.11527752391929
 10
-18.89394169822964
 20
17.82278986170027
 10
-18.89394169822964
 20
17.82278986170027
 10
-18.94853559062514
 20
17.57363370499517
 10
-18.94853559062514
 20
17.57363370499517
 10
-19.0328371234301
 20
17.35697617742552
 10
-19.0328371234301
 20
17.35697617742552
 10
-19.13992097974453
 20
17.18365015536981
 10
-19.13992097974453
 20
17.18365015536981
 10
-19.27546355575952
 20
17.03740632426029
 10
-19.27546355575952
 20
17.03740632426029
 10
-19.62480633110437
 20
16.7882501675552
 10
-19.62480633110437
 20
16.7882501675552
 10
-19.91795022935304
 20
16.53367757266086
 10
-19.91795022935304
 20
16.53367757266086
 10
-20.20966324806843
 20
16.23035703406336
 10
-20.20966324806843
 20
16.23035703406336
 10
-20.48383479267988
 20
15.89453786633041
 10
-20.48383479267988
 20
15.89453786633041
 10
-20.75207370371256
 20
15.50997075489428
 10
-20.75207370371256
 20
15.50997075489428
 10
-21.01232024133835
 20
15.07665569975499
 10
-21.01232024133835
 20
15.07665569975499
 10
-21.26839790642891
 20
14.58375982453404
 10
-21.26839790642891
 20
14.58375982453404
 10
-21.51839324534568
 20
14.03128312923144
 10
-21.51839324534568
 20
14.03128312923144
 10
-21.77027951777611
 20
13.39755986109022
 10
-21.77027951777611
 20
13.39755986109022
 10
-22.02820042670402
 20
12.66092426735343
 10
-22.02820042670402
 20
12.66092426735343
 10
-22.29168664515648
 20
11.81595990983203
 10
-22.29168664515648
 20
11.81595990983203
 10
-22.58528965116176
 20
10.77058733930875
 10
-22.58528965116176
 20
10.77058733930875
 10
-22.75953675211105
 20
10.12061475659998
 10
-22.75953675211105
 20
10.12061475659998
 10
-22.87521714568768
 20
9.790212027056357
 10
-22.87521714568768
 20
9.790212027056357
 10
-23.00765932500992
 20
9.508557241215889
 10
-23.00765932500992
 20
9.508557241215889
 10
-23.13991301656399
 20
9.302732590024778
 10
-23.13991301656399
 20
9.302732590024778
 10
-23.27450236678753
 20
9.151072320726063
 10
-23.27450236678753
 20
9.151072320726063
 10
-23.40503998697434
 20
9.058992871508987
 10
-23.40503998697434
 20
9.058992871508987
 10
-23.5602978915039
 20
8.977746298670391
 10
-23.5602978915039
 20
8.977746298670391
 10
-23.62841199637089
 20
8.907332602210274
 10
-23.62841199637089
 20
8.907332602210274
 10
-23.62841199637089
 20
4.882919027604935
 10
-23.62841199637089
 20
4.882919027604935
 10
-23.62841199637089
 20
0.6851794309437023
 10
-23.62841199637089
 20
0.6851794309437023
 10
-23.62841199637089
 20
-3.799631389747213
 10
-23.62841199637089
 20
-3.799631389747213
 10
-23.62841199637089
 20
-7.721132638757137
 10
-23.62841199637089
 20
-7.721132638757137
 10
-23.62841199637089
 20
-8.85316822030825
 10
-23.62841199637089
 20
-8.85316822030825
 10
-23.56030848920974
 20
-8.923581916768366
 10
-23.56030848920974
 20
-8.923581916768366
 10
-23.36484515965614
 20
-9.026494242363922
 10
-23.36484515965614
 20
-9.026494242363922
 10
-23.22501940727863
 20
-9.145655882527197
 10
-23.22501940727863
 20
-9.145655882527197
 10
-23.07881497145328
 20
-9.335231219150589
 10
-23.07881497145328
 20
-9.335231219150589
 10
-22.93914515674743
 20
-9.589803814044858
 10
-22.93914515674743
 20
-9.589803814044858
 10
-22.81197987795505
 20
-9.903957229020765
 10
-22.81197987795505
 20
-9.903957229020765
 10
-22.68259740770492
 20
-10.34810516053842
 10
-22.68259740770492
 20
-10.34810516053842
 10
-22.39403171837959
 20
-11.40972704562942
 10
-22.39403171837959
 20
-11.40972704562942
 10
-22.12958337963257
 20
-12.2926064704755
 10
-22.12958337963257
 20
-12.2926064704755
 10
-21.88404588997993
 20
-13.02924206421219
 10
-21.88404588997993
 20
-13.02924206421219
 10
-21.64725983441505
 20
-13.66296533235341
 10
-21.64725983441505
 20
-13.66296533235341
 10
-21.39766001701984
 20
-14.2533570949807
 10
-21.39766001701984
 20
-14.2533570949807
 10
-21.15722778291139
 20
-14.75166940839089
 10
-21.15722778291139
 20
-14.75166940839089
 10
-20.90627467632923
 20
-15.20665021628715
 10
-20.90627467632923
 20
-15.20665021628715
 10
-20.64366466105614
 20
-15.61829951866948
 10
-20.64366466105614
 20
-15.61829951866948
 10
-20.37418430448208
 20
-15.98120087734864
 10
-20.37418430448208
 20
-15.98120087734864
 10
-20.11065910161171
 20
-16.28452141594614
 10
-20.11065910161171
 20
-16.28452141594614
 10
-19.83015523851547
 20
-16.56075976359744
 10
-19.83015523851547
 20
-16.56075976359744
 10
-19.57420209646854
 20
-16.77200085297785
 10
-19.57420209646854
 20
-16.77200085297785
 10
-19.32835310996208
 20
-16.93991043684433
 10
-19.32835310996208
 20
-16.93991043684433
 10
-19.19410515726242
 20
-17.06448851519687
 10
-19.19410515726242
 20
-17.06448851519687
 10
-19.07758120522532
 20
-17.22156522268487
 10
-19.07758120522532
 20
-17.22156522268487
 10
-18.98335832730565
 20
-17.41655699749755
 10
-18.98335832730565
 20
-17.41655699749755
 10
-18.91577495933208
 20
-17.64946383963492
 10
-18.91577495933208
 20
-17.64946383963492
 10
-18.87530884966883
 20
-17.93111862547546
 10
-18.87530884966883
 20
-17.93111862547546
 10
-18.86700980514917
 20
-18.29401998415462
 10
-18.86700980514917
 20
-18.29401998415462
 10
-18.89041446000967
 20
-18.59734052275213
 10
-18.89041446000967
 20
-18.59734052275213
 10
-18.94454716295633
 20
-18.8573295558357
 10
-18.94454716295633
 20
-18.8573295558357
 10
-19.02287613154087
 20
-19.06857064521611
 10
-19.02287613154087
 20
-19.06857064521611
 10
-19.12297420725856
 20
-19.24189666727183
 10
-19.12297420725856
 20
-19.24189666727183
 10
-19.25374015123281
 20
-19.39355693657058
 10
-19.25374015123281
 20
-19.39355693657058
 10
-19.45875125677023
 20
-19.55063364405857
 10
-19.45875125677023
 20
-19.55063364405857
 10
-19.65472412780556
 20
-19.69146103697885
 10
-19.65472412780556
 20
-19.69146103697885
 10
-19.93615500629577
 20
-19.94603363187318
 10
-19.93615500629577
 20
-19.94603363187318
 10
-20.2282321319047
 20
-20.26018704684917
 10
-20.2282321319047
 20
-20.26018704684917
 10
-20.45989665687713
 20
-20.55267470906819
 10
-20.45989665687713
 20
-20.55267470906819
 10
-20.7231453731719
 20
-20.93724182050432
 10
-20.7231453731719
 20
-20.93724182050432
 10
-20.97465826571617
 20
-21.36514043745437
 10
-20.97465826571617
 20
-21.36514043745437
 10
-21.22750609070692
 20
-21.86345275086456
 10
-21.22750609070692
 20
-21.86345275086456
 10
-21.46152860522899
 20
-22.39426369341019
 10
-21.46152860522899
 20
-22.39426369341019
 10
-21.6922251433197
 20
-22.99007189422672
 10
-21.6922251433197
 20
-22.99007189422672
 10
-21.93596291542682
 20
-23.70504173520656
 10
-21.93596291542682
 20
-23.70504173520656
 10
-22.17937367261086
 20
-24.5120910254035
 10
-22.17937367261086
 20
-24.5120910254035
 10
-22.42509170175228
 20
-25.422052641196
 10
-22.42509170175228
 20
-25.422052641196
 10
-22.71696273983154
 20
-26.61366904282844
 10
-22.71696273983154
 20
-26.61366904282844
 10
-22.84056264758739
 20
-27.01448546883208
 10
-22.84056264758739
 20
-27.01448546883208
 10
-22.97888390422496
 20
-27.36113751294334
 10
-22.97888390422496
 20
-27.36113751294334
 10
-23.1224888742033
 20
-27.63737586059449
 10
-23.1224888742033
 20
-27.63737586059449
 10
-23.26057660282287
 20
-27.83236763540708
 10
-23.26057660282287
 20
-27.83236763540708
 10
-23.37260570824776
 20
-27.94069639919184
 10
-23.37260570824776
 20
-27.94069639919184
 10
-23.52871483565006
 20
-28.02735941021965
 10
-23.52871483565006
 20
-28.02735941021965
 10
-23.60424354971085
 20
-28.11402242124747
 10
-23.60424354971085
 20
-28.11402242124747
 10
-23.62841199637089
 20
-28.15193748857214
 10
-23.62841199637089
 20
-28.15193748857214
 10
-23.62841199637089
 20
-30.89265521232674
 10
-23.62841199637089
 20
-30.89265521232674
 10
-22.5802334100071
 20
-30.95223603240837
 10
-22.5802334100071
 20
-30.95223603240837
 10
-22.30818765164051
 20
-31.02264972886846
 10
-22.30818765164051
 20
-31.02264972886846
 10
-22.04185329974327
 20
-31.13097849265324
 10
-22.04185329974327
 20
-31.13097849265324
 10
-21.79119901061687
 20
-31.27722232376267
 10
-21.79119901061687
 20
-31.27722232376267
 10
-21.57298392058048
 20
-31.4505483458183
 10
-21.57298392058048
 20
-31.4505483458183
 10
-21.37596954107914
 20
-31.65637299700936
 10
-21.37596954107914
 20
-31.65637299700936
 10
-21.21583120376501
 20
-31.87844696276813
 10
-21.21583120376501
 20
-31.87844696276813
 10
-21.08350086808834
 20
-32.1276031194731
 10
-21.08350086808834
 20
-32.1276031194731
 10
-20.98976151049766
 20
-32.3821757143673
 10
-20.98976151049766
 20
-32.3821757143673
 10
-20.93194061667356
 20
-32.6367483092615
 10
-20.93194061667356
 20
-32.6367483092615
 10
-20.90707291067276
 20
-32.90215378053418
 10
-20.90707291067276
 20
-32.90215378053418
 10
-20.91753000766668
 20
-33.1729756899961
 10
-20.91753000766668
 20
-33.1729756899961
 10
-20.96352140159044
 20
-33.43838116126877
 10
-20.96352140159044
 20
-33.43838116126877
 10
-21.04273527861271
 20
-33.69295375616298
 10
-21.04273527861271
 20
-33.69295375616298
 10
-21.15904377550516
 20
-33.94210991286794
 10
-21.15904377550516
 20
-33.94210991286794
 10
-21.30528814197216
 20
-34.18043319319443
 10
-21.30528814197216
 20
-34.18043319319443
 10
-21.30745764375362
 20
-34.21293182232986
 10
-21.30745764375362
 20
-34.21293182232986
 10
-19.68695127815637
 20
-36.44450435629607
 10
-19.68695127815637
 20
-36.44450435629607
 10
-19.66750959754619
 20
-36.47158654724226
  0
LINE
  5
25E
330
1F
100
AcDbEntity
  8
Vector Layer 1
 62
    18
420
        0
370
    30
100
AcDbLine
 10
-19.66750959754619
 20
-36.47158654724226
 30
0.0
 11
-19.57536819832809
 21
-36.57018855174187
 31
0.0
  0
ENDSEC
  0
SECTION
  2
OBJECTS
  0
DICTIONARY
  5
C
330
0
100
AcDbDictionary
281
     1
  3
ACAD_CIP_PREVIOUS_PRODUCT_INFO
350
216
  3
ACAD_COLOR
350
6B
  3
ACAD_DETAILVIEWSTYLE
350
21B
  3
ACAD_GROUP
350
D
  3
ACAD_LAYOUT
350
1A
  3
ACAD_MATERIAL
350
6A
  3
ACAD_MLEADERSTYLE
350
12D
  3
ACAD_MLINESTYLE
350
17
  3
ACAD_PLOTSETTINGS
350
19
  3
ACAD_PLOTSTYLENAME
350
E
  3
ACAD_SCALELIST
350
10C
  3
ACAD_SECTIONVIEWSTYLE
350
219
  3
ACAD_TABLESTYLE
350
7E
  3
ACAD_VISUALSTYLE
350
EF
  3
ACDB_RECOMPOSE_DATA
350
261
  3
AcDbVariableDictionary
350
5E
  3
AcDsDecomposeData
350
267
  0
DICTIONARY
  5
1FF
330
2
100
AcDbDictionary
280
     1
281
     1
  3
ACAD_LAYERSTATES
360
200
  0
DICTIONARY
  5
13C
330
10
100
AcDbDictionary
280
     1
281
     1
  0
DICTIONARY
  5
1CE
330
1F
100
AcDbDictionary
280
     1
281
     1
  0
XRECORD
  5
216
102
{ACAD_REACTORS
330
C
102
}
330
C
100
AcDbXrecord
280
     1
300
ACD
300
2015
300

  0
DICTIONARY
  5
6B
102
{ACAD_REACTORS
330
C
102
}
330
C
100
AcDbDictionary
281
     1
  0
DICTIONARY
  5
21B
102
{ACAD_REACTORS
330
C
102
}
330
C
100
AcDbDictionary
281
     1
  3
Metric50
350
21C
  0
DICTIONARY
  5
D
102
{ACAD_REACTORS
330
C
102
}
330
C
100
AcDbDictionary
281
     1
  0
DICTIONARY
  5
1A
102
{ACAD_REACTORS
330
C
102
}
330
C
100
AcDbDictionary
281
     1
  3
Layout1
350
D3
  3
Layout2
350
D7
  3
Model
350
22
  0
DICTIONARY
  5
6A
102
{ACAD_REACTORS
330
C
102
}
330
C
100
AcDbDictionary
281
     1
  3
ByBlock
350
ED
  3
ByLayer
350
EC
  3
Global
350
EE
  0
DICTIONARY
  5
12D
102
{ACAD_REACTORS
330
C
102
}
330
C
100
AcDbDictionary
281
     1
  3
Annotative
350
13B
  3
Standard
350
12E
  0
DICTIONARY
  5
17
102
{ACAD_REACTORS
330
C
102
}
330
C
100
AcDbDictionary
281
     1
  3
Standard
350
18
  0
DICTIONARY
  5
19
102
{ACAD_REACTORS
330
C
102
}
330
C
100
AcDbDictionary
281
     1
  0
ACDBDICTIONARYWDFLT
  5
E
102
{ACAD_REACTORS
330
C
102
}
330
C
100
AcDbDictionary
281
     1
  3
Normal
350
F
100
AcDbDictionaryWithDefault
340
F
  0
DICTIONARY
  5
10C
102
{ACAD_REACTORS
330
C
102
}
330
C
100
AcDbDictionary
281
     1
  3
A0
350
10D
  3
A1
350
1BE
  3
A2
350
1BF
  3
A3
350
1C0
  3
A4
350
1C1
  3
A5
350
1C2
  3
A6
350
1C3
  3
A7
350
1C4
  3
A8
350
1C5
  3
A9
350
1C6
  3
B0
350
1C7
  3
B1
350
1C8
  3
B2
350
1C9
  3
B3
350
1CA
  3
B4
350
1CB
  3
B5
350
1CC
  3
B6
350
1CD
  0
DICTIONARY
  5
219
102
{ACAD_REACTORS
330
C
102
}
330
C
100
AcDbDictionary
281
     1
  3
Metric50
350
21A
  0
DICTIONARY
  5
7E
102
{ACAD_REACTORS
330
C
102
}
330
C
100
AcDbDictionary
281
     1
  3
Standard
350
7F
  0
DICTIONARY
  5
EF
102
{ACAD_REACTORS
330
C
102
}
330
C
100
AcDbDictionary
281
     1
  3
2dWireframe
350
F5
  3
Basic
350
F4
  3
Brighten
350
FB
  3
ColorChange
350
FF
  3
Conceptual
350
F8
  3
Dim
350
FA
  3
EdgeColorOff
350
1E6
  3
Facepattern
350
FE
  3
Flat
350
F0
  3
FlatWithEdges
350
F1
  3
Gouraud
350
F2
  3
GouraudWithEdges
350
F3
  3
Hidden
350
F7
  3
JitterOff
350
1E4
  3
Linepattern
350
FD
  3
OverhangOff
350
1E5
  3
Realistic
350
F9
  3
Shaded
350
1F3
  3
Shaded with edges
350
1F2
  3
Shades of Gray
350
1EF
  3
Sketchy
350
1F0
  3
Thicken
350
FC
  3
Wireframe
350
F6
  3
X-Ray
350
1F1
  0
XRECORD
  5
261
102
{ACAD_REACTORS
330
C
102
}
330
C
100
AcDbXrecord
280
     1
 90
        1
330
7F
  0
DICTIONARY
  5
5E
102
{ACAD_REACTORS
330
C
102
}
330
C
100
AcDbDictionary
281
     1
  3
CANNOSCALE
350
146
  3
CMLEADERSTYLE
350
145
  3
CTABLESTYLE
350
84
  3
CVIEWDETAILSTYLE
350
227
  3
CVIEWSECTIONSTYLE
350
228
  3
DIMASSOC
350
5F
  3
HIDETEXT
350
63
  3
LAYEREVAL
350
1AE
  3
LAYERNOTIFY
350
1AF
  3
XCLIPFRAME
350
25F
  0
DICTIONARY
  5
267
102
{ACAD_REACTORS
330
C
102
}
330
C
100
AcDbDictionary
281
     1
  3
AcDsRecords
350
269
  3
AcDsSchemas
350
268
1001
ACAD
1070
     2
  0
DICTIONARY
  5
200
102
{ACAD_REACTORS
330
1FF
102
}
330
1FF
100
AcDbDictionary
281
     1
  0
ACDBDETAILVIEWSTYLE
  5
21C
102
{ACAD_XDICTIONARY
360
236
102
}
102
{ACAD_REACTORS
330
21B
102
}
330
21B
100
AcDbModelDocViewStyle
 70
     0
  3
Metric50
290
     0
100
AcDbDetailViewStyle
 70
     0
 71
     0
 90
        3
 71
     1
340
11
 62
   256
 40
5.0
340
0
 62
   256
 40
5.0
300

 40
0.0
280
     1
 71
     2
340
16
 90
       25
 62
   256
 71
     3
340
11
 62
   256
 40
5.0
 90
        0
 40
15.0
 90
        1
300
%<\AcVar ViewDetailId>% (%<\AcVar ViewScale \f "%sn">%)
 71
     4
340
16
 90
       25
 62
   256
340
16
 90
       25
 62
   256
280
     0
  0
LAYOUT
  5
D3
102
{ACAD_REACTORS
330
1A
102
}
330
1A
100
AcDbPlotSettings
  1

  2
C:\Documents and Settings\basas\Application Data\Autodesk\AutoCAD 2005\R16.1\enu\plotters\Default Windows System Printer.pc3
  4

  6

 40
0.0
 41
0.0
 42
0.0
 43
0.0
 44
0.0
 45
0.0
 46
0.0
 47
0.0
 48
0.0
 49
0.0
140
0.0
141
0.0
142
1.0
143
1.0
 70
   688
 72
     0
 73
     0
 74
     5
  7

 75
    16
147
1.0
 76
     0
 77
     2
 78
   300
148
0.0
149
0.0
100
AcDbLayout
  1
Layout1
 70
     1
 71
     1
 10
0.0
 20
0.0
 11
12.0
 21
9.0
 12
0.0
 22
0.0
 32
0.0
 14
0.0
 24
0.0
 34
0.0
 15
0.0
 25
0.0
 35
0.0
146
0.0
 13
0.0
 23
0.0
 33
0.0
 16
1.0
 26
0.0
 36
0.0
 17
0.0
 27
1.0
 37
0.0
 76
     0
330
D2
  0
LAYOUT
  5
D7
102
{ACAD_REACTORS
330
1A
102
}
330
1A
100
AcDbPlotSettings
  1

  2
C:\Documents and Settings\basas\Application Data\Autodesk\AutoCAD 2005\R16.1\enu\plotters\Default Windows System Printer.pc3
  4

  6

 40
0.0
 41
0.0
 42
0.0
 43
0.0
 44
0.0
 45
0.0
 46
0.0
 47
0.0
 48
0.0
 49
0.0
140
0.0
141
0.0
142
1.0
143
1.0
 70
   688
 72
     0
 73
     0
 74
     5
  7

 75
    16
147
1.0
 76
     0
 77
     2
 78
   300
148
0.0
149
0.0
100
AcDbLayout
  1
Layout2
 70
     1
 71
     2
 10
0.0
 20
0.0
 11
12.0
 21
9.0
 12
0.0
 22
0.0
 32
0.0
 14
0.0
 24
0.0
 34
0.0
 15
0.0
 25
0.0
 35
0.0
146
0.0
 13
0.0
 23
0.0
 33
0.0
 16
1.0
 26
0.0
 36
0.0
 17
0.0
 27
1.0
 37
0.0
 76
     0
330
D6
  0
LAYOUT
  5
22
102
{ACAD_XDICTIONARY
360
205
102
}
102
{ACAD_REACTORS
330
1A
102
}
330
1A
100
AcDbPlotSettings
  1

  2
none_device
  4
ISO_A4_(210.00_x_297.00_MM)
  6

 40
7.5
 41
20.0
 42
7.5
 43
20.0
 44
210.0
 45
297.0
 46
11.54999923706054
 47
-13.65000009536743
 48
0.0
 49
0.0
140
0.0
141
0.0
142
1.0
143
8.704084754739808
 70
 11952
 72
     1
 73
     0
 74
     0
  7

 75
     0
147
0.1148885871608098
 76
     0
 77
     2
 78
   300
148
0.0
149
0.0
100
AcDbLayout
  1
Model
 70
     1
 71
     0
 10
0.0
 20
0.0
 11
12.0
 21
9.0
 12
0.0
 22
0.0
 32
0.0
 14
0.0
 24
0.0
 34
0.0
 15
0.0
 25
0.0
 35
0.0
146
0.0
 13
0.0
 23
0.0
 33
0.0
 16
1.0
 26
0.0
 36
0.0
 17
0.0
 27
1.0
 37
0.0
 76
     0
330
1F
331
EA
1001
ACAD_PSEXT
1000
None
1000
None
1000
Not applicable
1000
The layout will not be plotted unless a new plotter configuration name is selected.
1070
     0
  0
MATERIAL
  5
ED
102
{ACAD_XDICTIONARY
360
1F9
102
}
102
{ACAD_REACTORS
330
6A
102
}
330
6A
100
AcDbMaterial
  1
ByBlock
 94
       63
  0
MATERIAL
  5
EC
102
{ACAD_XDICTIONARY
360
1F7
102
}
102
{ACAD_REACTORS
330
6A
102
}
330
6A
100
AcDbMaterial
  1
ByLayer
 94
       63
  0
MATERIAL
  5
EE
102
{ACAD_XDICTIONARY
360
173
102
}
102
{ACAD_REACTORS
330
6A
102
}
330
6A
100
AcDbMaterial
  1
Global
 43
0.0007999999797903
 43
0.0
 43
0.0
 43
0.0
 43
0.0
 43
0.0007999999797903
 43
0.0
 43
0.0
 43
0.0
 43
0.0
 43
1.0
 43
0.0
 43
0.0
 43
0.0
 43
0.0
 43
1.0
 49
0.0007999999797903
 49
0.0
 49
0.0
 49
0.0
 49
0.0
 49
0.0007999999797903
 49
0.0
 49
0.0
 49
0.0
 49
0.0
 49
1.0
 49
0.0
 49
0.0
 49
0.0
 49
0.0
 49
1.0
142
0.0007999999797903
142
0.0
142
0.0
142
0.0
142
0.0
142
0.0007999999797903
142
0.0
142
0.0
142
0.0
142
0.0
142
1.0
142
0.0
142
0.0
142
0.0
142
0.0
142
1.0
144
0.0007999999797903
144
0.0
144
0.0
144
0.0
144
0.0
144
0.0007999999797903
144
0.0
144
0.0
144
0.0
144
0.0
144
1.0
144
0.0
144
0.0
144
0.0
144
0.0
144
1.0
 94
       63
1001
ACAD
1070
    -1
1070
     3
1070
     0
1000

1071
        0
1070
     0
  0
MLEADERSTYLE
  5
13B
102
{ACAD_REACTORS
330
12D
102
}
330
12D
100
AcDbMLeaderStyle
170
     2
171
     1
172
     0
 90
        2
 40
0.0
 41
0.0
173
     1
 91
-1056964608
340
14
 92
       -2
290
     1
 42
2.0
291
     1
 43
8.0
  3
Standard
 44
4.0
300

342
11
174
     1
178
     1
175
     1
176
     0
 93
-1056964608
 45
4.0
292
     0
297
     0
 46
4.0
 94
-1056964608
 47
1.0
 49
1.0
140
1.0
293
     1
141
0.0
294
     1
177
     0
142
1.0
295
     0
296
     1
143
3.75
1001
ACAD_MLEADERVER
1070
     2
  0
MLEADERSTYLE
  5
12E
102
{ACAD_REACTORS
330
12D
102
}
330
12D
100
AcDbMLeaderStyle
170
     2
171
     1
172
     0
 90
        2
 40
0.0
 41
0.0
173
     1
 91
-1056964608
340
14
 92
       -2
290
     1
 42
2.0
291
     1
 43
8.0
  3
Standard
 44
4.0
300

342
11
174
     1
178
     1
175
     1
176
     0
 93
-1056964608
 45
4.0
292
     0
297
     0
 46
4.0
 94
-1056964608
 47
1.0
 49
1.0
140
1.0
293
     1
141
0.0
294
     1
177
     0
142
1.0
295
     0
296
     0
143
3.75
1001
ACAD_MLEADERVER
1070
     2
  0
MLINESTYLE
  5
18
102
{ACAD_REACTORS
330
17
102
}
330
17
100
AcDbMlineStyle
  2
STANDARD
 70
     0
  3

 62
   256
 51
90.0
 52
90.0
 71
     2
 49
0.5
 62
   256
  6
BYLAYER
 49
-0.5
 62
   256
  6
BYLAYER
  0
ACDBPLACEHOLDER
  5
F
102
{ACAD_REACTORS
330
E
102
}
330
E
  0
SCALE
  5
10D
102
{ACAD_REACTORS
330
10C
102
}
330
10C
100
AcDbScale
 70
     0
300
1:1
140
1.0
141
1.0
290
     1
  0
SCALE
  5
1BE
102
{ACAD_REACTORS
330
10C
102
}
330
10C
100
AcDbScale
 70
     0
300
1:2
140
1.0
141
2.0
290
     0
  0
SCALE
  5
1BF
102
{ACAD_REACTORS
330
10C
102
}
330
10C
100
AcDbScale
 70
     0
300
1:4
140
1.0
141
4.0
290
     0
  0
SCALE
  5
1C0
102
{ACAD_REACTORS
330
10C
102
}
330
10C
100
AcDbScale
 70
     0
300
1:5
140
1.0
141
5.0
290
     0
  0
SCALE
  5
1C1
102
{ACAD_REACTORS
330
10C
102
}
330
10C
100
AcDbScale
 70
     0
300
1:8
140
1.0
141
8.0
290
     0
  0
SCALE
  5
1C2
102
{ACAD_REACTORS
330
10C
102
}
330
10C
100
AcDbScale
 70
     0
300
1:10
140
1.0
141
10.0
290
     0
  0
SCALE
  5
1C3
102
{ACAD_REACTORS
330
10C
102
}
330
10C
100
AcDbScale
 70
     0
300
1:16
140
1.0
141
16.0
290
     0
  0
SCALE
  5
1C4
102
{ACAD_REACTORS
330
10C
102
}
330
10C
100
AcDbScale
 70
     0
300
1:20
140
1.0
141
20.0
290
     0
  0
SCALE
  5
1C5
102
{ACAD_REACTORS
330
10C
102
}
330
10C
100
AcDbScale
 70
     0
300
1:30
140
1.0
141
30.0
290
     0
  0
SCALE
  5
1C6
102
{ACAD_REACTORS
330
10C
102
}
330
10C
100
AcDbScale
 70
     0
300
1:40
140
1.0
141
40.0
290
     0
  0
SCALE
  5
1C7
102
{ACAD_REACTORS
330
10C
102
}
330
10C
100
AcDbScale
 70
     0
300
1:50
140
1.0
141
50.0
290
     0
  0
SCALE
  5
1C8
102
{ACAD_REACTORS
330
10C
102
}
330
10C
100
AcDbScale
 70
     0
300
1:100
140
1.0
141
100.0
290
     0
  0
SCALE
  5
1C9
102
{ACAD_REACTORS
330
10C
102
}
330
10C
100
AcDbScale
 70
     0
300
2:1
140
2.0
141
1.0
290
     0
  0
SCALE
  5
1CA
102
{ACAD_REACTORS
330
10C
102
}
330
10C
100
AcDbScale
 70
     0
300
4:1
140
4.0
141
1.0
290
     0
  0
SCALE
  5
1CB
102
{ACAD_REACTORS
330
10C
102
}
330
10C
100
AcDbScale
 70
     0
300
8:1
140
8.0
141
1.0
290
     0
  0
SCALE
  5
1CC
102
{ACAD_REACTORS
330
10C
102
}
330
10C
100
AcDbScale
 70
     0
300
10:1
140
10.0
141
1.0
290
     0
  0
SCALE
  5
1CD
102
{ACAD_REACTORS
330
10C
102
}
330
10C
100
AcDbScale
 70
     0
300
100:1
140
100.0
141
1.0
290
     0
  0
ACDBSECTIONVIEWSTYLE
  5
21A
102
{ACAD_XDICTIONARY
360
234
102
}
102
{ACAD_REACTORS
330
219
102
}
330
219
100
AcDbModelDocViewStyle
 70
     0
  3
Metric50
290
     0
100
AcDbSectionViewStyle
 70
     0
 71
     0
 90
      102
 71
     1
340
11
 62
   256
 40
5.0
340
0
340
0
 62
   256
 40
5.0
300
I, O, Q, S, X, Z
 40
10.0
 90
        0
 40
2.5
 90
        0
 71
     2
340
16
 90
       25
 62
   256
340
16
 90
       50
 62
   256
 40
5.0
 40
2.5
 40
5.0
 71
     3
340
11
 62
   256
 40
5.0
 90
        0
 40
15.0
 90
        1
300
%<\AcVar ViewSectionStartId>%-%<\AcVar ViewSectionEndId>% (%<\AcVar ViewScale \f "%sn">%)
 71
     4
 62
   256
 62
   257
300
ANSI31
 40
1.0
 90
        0
290
     0
290
     0
 90
        6
 40
0.0
 40
1.570796326794896
 40
0.2617993877991494
 40
1.308996938995747
 40
-0.2617993877991494
 40
1.832595714594046
  0
TABLESTYLE
  5
7F
102
{ACAD_XDICTIONARY
360
162
102
}
102
{ACAD_REACTORS
330
7E
102
}
330
7E
100
AcDbTableStyle
  3
Standard
 70
     0
 71
     0
 40
1.5
 41
1.5
280
     0
281
     0
  7
Standard
140
4.5
170
     2
 62
     0
 63
     7
283
     0
 90
      512
 91
        0
  1

274
    -2
284
     1
 64
     0
275
    -2
285
     1
 65
     0
276
    -2
286
     1
 66
     0
277
    -2
287
     1
 67
     0
278
    -2
288
     1
 68
     0
279
    -2
289
     1
 69
     0
  7
Standard
140
6.0
170
     5
 62
     0
 63
     7
283
     0
 90
      512
 91
        0
  1

274
    -2
284
     1
 64
     0
275
    -2
285
     1
 65
     0
276
    -2
286
     1
 66
     0
277
    -2
287
     1
 67
     0
278
    -2
288
     1
 68
     0
279
    -2
289
     1
 69
     0
  7
Standard
140
4.5
170
     5
 62
     0
 63
     7
283
     0
 90
      512
 91
        0
  1

274
    -2
284
     1
 64
     0
275
    -2
285
     1
 65
     0
276
    -2
286
     1
 66
     0
277
    -2
287
     1
 67
     0
278
    -2
288
     1
 68
     0
279
    -2
289
     1
 69
     0
  0
VISUALSTYLE
  5
F5
102
{ACAD_XDICTIONARY
360
274
102
}
102
{ACAD_REACTORS
330
EF
102
}
330
EF
100
AcDbVisualStyle
  2
2dWireframe
 70
     4
 71
     0
 72
     2
 73
     1
 90
        0
 40
-0.6
 41
-30.0
 62
     5
 63
     7
421
 16777215
 74
     1
 91
        4
 64
     7
 65
   257
 75
     1
175
     1
 42
1.0
 92
        0
 66
   257
 43
1.0
 76
     1
 77
     6
 78
     2
 67
     7
 79
     5
170
     0
171
     0
290
     0
174
     0
 93
        1
 44
0.0
173
     0
291
     0
 45
0.0
1001
ACAD
1000
AcDbSavedByObjectVersion
1070
     0
  0
VISUALSTYLE
  5
F4
102
{ACAD_XDICTIONARY
360
272
102
}
102
{ACAD_REACTORS
330
EF
102
}
330
EF
100
AcDbVisualStyle
  2
Basic
 70
     7
 71
     1
 72
     0
 73
     1
 90
        0
 40
-0.6
 41
-30.0
 62
     5
 63
     7
421
 16777215
 74
     0
 91
        4
 64
     7
 65
   257
 75
     1
175
     1
 42
1.0
 92
        8
 66
     7
 43
1.0
 76
     1
 77
     6
 78
     2
 67
     7
 79
     5
170
     0
171
     0
290
     0
174
     0
 93
        1
 44
0.0
173
     0
291
     1
 45
0.0
1001
ACAD
1000
AcDbSavedByObjectVersion
1070
     0
  0
VISUALSTYLE
  5
FB
102
{ACAD_XDICTIONARY
360
280
102
}
102
{ACAD_REACTORS
330
EF
102
}
330
EF
100
AcDbVisualStyle
  2
Brighten
 70
    12
 71
     2
 72
     2
 73
     1
 90
        0
 40
-0.6
 41
-30.0
 62
     5
 63
     7
421
 16777215
 74
     1
 91
        4
 64
     7
 65
   257
 75
     1
175
     1
 42
1.0
 92
        8
 66
     7
 43
1.0
 76
     1
 77
     6
 78
     2
 67
     7
 79
     5
170
     0
171
     0
290
     0
174
     0
 93
        1
 44
50.0
173
     0
291
     1
 45
0.0
1001
ACAD
1000
AcDbSavedByObjectVersion
1070
     0
  0
VISUALSTYLE
  5
FF
102
{ACAD_XDICTIONARY
360
288
102
}
102
{ACAD_REACTORS
330
EF
102
}
330
EF
100
AcDbVisualStyle
  2
ColorChange
 70
    16
 71
     2
 72
     2
 73
     3
 90
        0
 40
-0.6
 41
-30.0
 62
     5
 63
     8
421
  8421504
 74
     1
 91
        4
 64
     7
 65
   257
 75
     1
175
     1
 42
1.0
 92
        8
 66
     8
424
  8421504
 43
1.0
 76
     1
 77
     6
 78
     2
 67
     7
 79
     5
170
     0
171
     0
290
     0
174
     0
 93
        1
 44
0.0
173
     0
291
     1
 45
0.0
1001
ACAD
1000
AcDbSavedByObjectVersion
1070
     0
  0
VISUALSTYLE
  5
F8
102
{ACAD_XDICTIONARY
360
27A
102
}
102
{ACAD_REACTORS
330
EF
102
}
330
EF
100
AcDbVisualStyle
  2
Conceptual
 70
     9
 71
     3
 72
     2
 73
     1
 90
        0
 40
-0.6
 41
-30.0
 62
     5
 63
     7
421
 16777215
 74
     2
 91
        2
 64
     7
 65
   257
 75
     1
175
     1
 42
40.0
 92
        8
 66
     7
 43
1.0
 76
     1
 77
     6
 78
     2
 67
     7
 79
     3
170
     0
171
     0
290
     0
174
     0
 93
        1
 44
0.0
173
     0
291
     0
 45
0.0
1001
ACAD
1000
AcDbSavedByObjectVersion
1070
     0
  0
VISUALSTYLE
  5
FA
102
{ACAD_XDICTIONARY
360
27E
102
}
102
{ACAD_REACTORS
330
EF
102
}
330
EF
100
AcDbVisualStyle
  2
Dim
 70
    11
 71
     2
 72
     2
 73
     1
 90
        0
 40
-0.6
 41
-30.0
 62
     5
 63
     7
421
 16777215
 74
     1
 91
        4
 64
     7
 65
   257
 75
     1
175
     1
 42
1.0
 92
        8
 66
     7
 43
1.0
 76
     1
 77
     6
 78
     2
 67
     7
 79
     5
170
     0
171
     0
290
     0
174
     0
 93
        1
 44
-50.0
173
     0
291
     1
 45
0.0
1001
ACAD
1000
AcDbSavedByObjectVersion
1070
     0
  0
VISUALSTYLE
  5
1E6
102
{ACAD_XDICTIONARY
360
28E
102
}
102
{ACAD_REACTORS
330
EF
102
}
330
EF
100
AcDbVisualStyle
  2
EdgeColorOff
 70
    22
 71
     2
 72
     2
 73
     0
 90
        0
 40
-0.6
 41
-30.0
 62
     5
 63
     7
421
 16777215
 74
     1
 91
        4
 64
     7
 65
   257
 75
     1
175
     1
 42
1.0
 92
        8
 66
     7
 43
1.0
 76
     1
 77
     6
 78
     2
 67
     7
 79
     5
170
     0
171
     0
290
     0
174
     0
 93
        1
 44
0.0
173
     0
291
     1
 45
0.0
1001
ACAD
1000
AcDbSavedByObjectVersion
1070
     0
  0
VISUALSTYLE
  5
FE
102
{ACAD_XDICTIONARY
360
286
102
}
102
{ACAD_REACTORS
330
EF
102
}
330
EF
100
AcDbVisualStyle
  2
Facepattern
 70
    15
 71
     2
 72
     2
 73
     1
 90
        0
 40
-0.6
 41
-30.0
 62
     5
 63
     7
421
 16777215
 74
     1
 91
        4
 64
     7
 65
   257
 75
     1
175
     1
 42
1.0
 92
        8
 66
     7
 43
1.0
 76
     1
 77
     6
 78
     2
 67
     7
 79
     5
170
     0
171
     0
290
     0
174
     0
 93
        1
 44
0.0
173
     0
291
     1
 45
0.0
1001
ACAD
1000
AcDbSavedByObjectVersion
1070
     0
  0
VISUALSTYLE
  5
F0
102
{ACAD_XDICTIONARY
360
26A
102
}
102
{ACAD_REACTORS
330
EF
102
}
330
EF
100
AcDbVisualStyle
  2
Flat
 70
     0
 71
     2
 72
     1
 73
     1
 90
        2
 40
-0.6
 41
30.0
 62
     5
 63
     7
421
 16777215
 74
     0
 91
        0
 64
     7
 65
   257
 75
     1
175
     1
 42
1.0
 92
        8
 66
     7
 43
1.0
 76
     1
 77
     6
 78
     2
 67
     7
 79
     5
170
     0
171
     0
290
     0
174
     0
 93
       13
 44
0.0
173
     0
291
     1
 45
0.0
1001
ACAD
1000
AcDbSavedByObjectVersion
1070
     0
  0
VISUALSTYLE
  5
F1
102
{ACAD_XDICTIONARY
360
26C
102
}
102
{ACAD_REACTORS
330
EF
102
}
330
EF
100
AcDbVisualStyle
  2
FlatWithEdges
 70
     1
 71
     2
 72
     1
 73
     1
 90
        2
 40
-0.6
 41
30.0
 62
     5
 63
     7
421
 16777215
 74
     1
 91
        0
 64
     7
 65
   257
 75
     1
175
     1
 42
1.0
 92
        0
 66
   257
 43
1.0
 76
     1
 77
     6
 78
     2
 67
     7
 79
     5
170
     0
171
     0
290
     0
174
     0
 93
       13
 44
0.0
173
     0
291
     1
 45
0.0
1001
ACAD
1000
AcDbSavedByObjectVersion
1070
     0
  0
VISUALSTYLE
  5
F2
102
{ACAD_XDICTIONARY
360
26E
102
}
102
{ACAD_REACTORS
330
EF
102
}
330
EF
100
AcDbVisualStyle
  2
Gouraud
 70
     2
 71
     2
 72
     2
 73
     1
 90
        2
 40
-0.6
 41
30.0
 62
     5
 63
     7
421
 16777215
 74
     0
 91
        0
 64
     7
 65
   257
 75
     1
175
     1
 42
1.0
 92
        0
 66
     7
 43
1.0
 76
     1
 77
     6
 78
     2
 67
     7
 79
     5
170
     0
171
     0
290
     0
174
     0
 93
       13
 44
0.0
173
     0
291
     1
 45
0.0
1001
ACAD
1000
AcDbSavedByObjectVersion
1070
     0
  0
VISUALSTYLE
  5
F3
102
{ACAD_XDICTIONARY
360
270
102
}
102
{ACAD_REACTORS
330
EF
102
}
330
EF
100
AcDbVisualStyle
  2
GouraudWithEdges
 70
     3
 71
     2
 72
     2
 73
     1
 90
        2
 40
-0.6
 41
30.0
 62
     5
 63
     7
421
 16777215
 74
     1
 91
        0
 64
     7
 65
   257
 75
     1
175
     1
 42
1.0
 92
        0
 66
   257
 43
1.0
 76
     1
 77
     6
 78
     2
 67
     7
 79
     5
170
     0
171
     0
290
     0
174
     0
 93
       13
 44
0.0
173
     0
291
     1
 45
0.0
1001
ACAD
1000
AcDbSavedByObjectVersion
1070
     0
  0
VISUALSTYLE
  5
F7
102
{ACAD_XDICTIONARY
360
278
102
}
102
{ACAD_REACTORS
330
EF
102
}
330
EF
100
AcDbVisualStyle
  2
Hidden
 70
     6
 71
     1
 72
     2
 73
     2
 90
        0
 40
-0.6
 41
-30.0
 62
     5
 63
     7
421
 16777215
 74
     2
 91
        2
 64
     7
 65
   257
 75
     2
175
     1
 42
40.0
 92
        0
 66
   257
 43
1.0
 76
     1
 77
     6
 78
     2
 67
     7
 79
     3
170
     0
171
     0
290
     0
174
     0
 93
        1
 44
0.0
173
     0
291
     0
 45
0.0
1001
ACAD
1000
AcDbSavedByObjectVersion
1070
     0
  0
VISUALSTYLE
  5
1E4
102
{ACAD_XDICTIONARY
360
28A
102
}
102
{ACAD_REACTORS
330
EF
102
}
330
EF
100
AcDbVisualStyle
  2
JitterOff
 70
    20
 71
     2
 72
     2
 73
     0
 90
        0
 40
-0.6
 41
-30.0
 62
     5
 63
     7
421
 16777215
 74
     1
 91
        4
 64
     7
 65
   257
 75
     1
175
     1
 42
1.0
 92
       10
 66
     7
 43
1.0
 76
     1
 77
     6
 78
     2
 67
     7
 79
     5
170
     0
171
     0
290
     0
174
     0
 93
        1
 44
0.0
173
     0
291
     1
 45
0.0
1001
ACAD
1000
AcDbSavedByObjectVersion
1070
     0
  0
VISUALSTYLE
  5
FD
102
{ACAD_XDICTIONARY
360
284
102
}
102
{ACAD_REACTORS
330
EF
102
}
330
EF
100
AcDbVisualStyle
  2
Linepattern
 70
    14
 71
     2
 72
     2
 73
     1
 90
        0
 40
-0.6
 41
-30.0
 62
     5
 63
     7
421
 16777215
 74
     1
 91
        4
 64
     7
 65
   257
 75
     7
175
     7
 42
1.0
 92
        8
 66
     7
 43
1.0
 76
     1
 77
     6
 78
     2
 67
     7
 79
     5
170
     0
171
     0
290
     0
174
     0
 93
        1
 44
0.0
173
     0
291
     1
 45
0.0
1001
ACAD
1000
AcDbSavedByObjectVersion
1070
     0
  0
VISUALSTYLE
  5
1E5
102
{ACAD_XDICTIONARY
360
28C
102
}
102
{ACAD_REACTORS
330
EF
102
}
330
EF
100
AcDbVisualStyle
  2
OverhangOff
 70
    21
 71
     2
 72
     2
 73
     0
 90
        0
 40
-0.6
 41
-30.0
 62
     5
 63
     7
421
 16777215
 74
     1
 91
        4
 64
     7
 65
   257
 75
     1
175
     1
 42
1.0
 92
        9
 66
     7
 43
1.0
 76
     1
 77
     6
 78
     2
 67
     7
 79
     5
170
     0
171
     0
290
     0
174
     0
 93
        1
 44
0.0
173
     0
291
     1
 45
0.0
1001
ACAD
1000
AcDbSavedByObjectVersion
1070
     0
  0
VISUALSTYLE
  5
F9
102
{ACAD_XDICTIONARY
360
27C
102
}
102
{ACAD_REACTORS
330
EF
102
}
330
EF
100
AcDbVisualStyle
  2
Realistic
 70
     8
 71
     2
 72
     3
 73
     0
 90
        2
 40
-0.6
 41
30.0
 62
     5
 63
     7
421
 16777215
 74
     0
 91
        0
 64
     7
 65
   257
 75
     1
175
     1
 42
1.0
 92
        8
 66
   257
 43
1.0
 76
     1
 77
     6
 78
     2
 67
     7
 79
     3
170
     0
171
     0
290
     0
174
     0
 93
       13
 44
0.0
173
     0
291
     0
 45
0.0
1001
ACAD
1000
AcDbSavedByObjectVersion
1070
     0
  0
VISUALSTYLE
  5
1F3
102
{ACAD_XDICTIONARY
360
298
102
}
102
{ACAD_REACTORS
330
EF
102
}
330
EF
100
AcDbVisualStyle
  2
Shaded
 70
    27
 71
     2
 72
     2
 73
     1
 90
        2
 40
-0.6
 41
30.0
 62
     5
 63
     7
421
 16777215
 74
     0
 91
        4
 64
     7
 65
   257
 75
     1
175
     1
 42
1.0
 92
        8
 66
   257
 43
1.0
 76
     1
 77
     6
 78
     2
 67
     8
425
  7895160
 79
     3
170
     0
171
     0
290
     0
174
     0
 93
        5
 44
0.0
173
     0
291
     0
 45
0.0
1001
ACAD
1000
AcDbSavedByObjectVersion
1070
     0
  0
VISUALSTYLE
  5
1F2
102
{ACAD_XDICTIONARY
360
296
102
}
102
{ACAD_REACTORS
330
EF
102
}
330
EF
100
AcDbVisualStyle
  2
Shaded with edges
 70
    26
 71
     2
 72
     2
 73
     1
 90
        2
 40
-0.6
 41
30.0
 62
     5
 63
     7
421
 16777215
 74
     1
 91
       10
 64
     7
 65
   257
 75
     2
175
     1
 42
1.0
 92
        8
 66
   257
 43
1.0
 76
     1
 77
     6
 78
     2
 67
     7
 79
     3
170
     0
171
     0
290
     0
174
     0
 93
        5
 44
0.0
173
     0
291
     0
 45
0.0
1001
ACAD
1000
AcDbSavedByObjectVersion
1070
     0
  0
VISUALSTYLE
  5
1EF
102
{ACAD_XDICTIONARY
360
290
102
}
102
{ACAD_REACTORS
330
EF
102
}
330
EF
100
AcDbVisualStyle
  2
Shades of Gray
 70
    23
 71
     2
 72
     2
 73
     3
 90
        0
 40
-0.6
 41
-30.0
 62
     5
 63
     7
421
 16777215
 74
     2
 91
        2
 64
     7
 65
     7
 75
     1
175
     1
 42
40.0
 92
        8
 66
     7
 43
1.0
 76
     1
 77
     6
 78
     2
 67
     7
 79
     3
170
     0
171
     0
290
     0
174
     0
 93
        1
 44
0.0
173
     0
291
     0
 45
0.0
1001
ACAD
1000
AcDbSavedByObjectVersion
1070
     0
  0
VISUALSTYLE
  5
1F0
102
{ACAD_XDICTIONARY
360
292
102
}
102
{ACAD_REACTORS
330
EF
102
}
330
EF
100
AcDbVisualStyle
  2
Sketchy
 70
    24
 71
     1
 72
     2
 73
     2
 90
        0
 40
-0.6
 41
-30.0
 62
     5
 63
     7
421
 16777215
 74
     2
 91
        2
 64
     7
 65
     7
 75
     1
175
     1
 42
40.0
 92
       11
 66
     7
 43
1.0
 76
     1
 77
     6
 78
     2
 67
     7
 79
     6
170
     0
171
     0
290
     0
174
     0
 93
        1
 44
0.0
173
     0
291
     0
 45
0.0
1001
ACAD
1000
AcDbSavedByObjectVersion
1070
     0
  0
VISUALSTYLE
  5
FC
102
{ACAD_XDICTIONARY
360
282
102
}
102
{ACAD_REACTORS
330
EF
102
}
330
EF
100
AcDbVisualStyle
  2
Thicken
 70
    13
 71
     2
 72
     2
 73
     1
 90
        0
 40
-0.6
 41
-30.0
 62
     5
 63
     7
421
 16777215
 74
     1
 91
        4
 64
     7
 65
   257
 75
     1
175
     1
 42
1.0
 92
       12
 66
     7
 43
1.0
 76
     1
 77
     6
 78
     2
 67
     7
 79
     5
170
     0
171
     0
290
     0
174
     0
 93
        1
 44
0.0
173
     0
291
     1
 45
0.0
1001
ACAD
1000
AcDbSavedByObjectVersion
1070
     0
  0
VISUALSTYLE
  5
F6
102
{ACAD_XDICTIONARY
360
276
102
}
102
{ACAD_REACTORS
330
EF
102
}
330
EF
100
AcDbVisualStyle
  2
Wireframe
 70
     5
 71
     0
 72
     2
 73
     0
 90
        0
 40
-0.6
 41
-30.0
 62
     5
 63
     7
421
 16777215
 74
     1
 91
        4
 64
     7
 65
   257
 75
     1
175
     1
 42
1.0
 92
        0
 66
   257
 43
1.0
 76
     1
 77
     6
 78
     2
 67
     7
 79
     3
170
     0
171
     0
290
     0
174
     0
 93
        1
 44
0.0
173
     0
291
     0
 45
0.0
1001
ACAD
1000
AcDbSavedByObjectVersion
1070
     0
  0
VISUALSTYLE
  5
1F1
102
{ACAD_XDICTIONARY
360
294
102
}
102
{ACAD_REACTORS
330
EF
102
}
330
EF
100
AcDbVisualStyle
  2
X-Ray
 70
    25
 71
     2
 72
     2
 73
     1
 90
        1
 40
0.5
 41
-30.0
 62
     5
 63
     7
421
 16777215
 74
     1
 91
        0
 64
     7
 65
   257
 75
     1
175
     1
 42
1.0
 92
        8
 66
     7
 43
1.0
 76
     1
 77
     6
 78
     2
 67
     7
 79
     3
170
     0
171
     0
290
     0
174
     0
 93
       13
 44
0.0
173
     0
291
     0
 45
0.0
1001
ACAD
1000
AcDbSavedByObjectVersion
1070
     0
  0
DICTIONARYVAR
  5
146
102
{ACAD_REACTORS
330
5E
102
}
330
5E
100
DictionaryVariables
280
     0
  1
1:1
  0
DICTIONARYVAR
  5
145
102
{ACAD_REACTORS
330
5E
102
}
330
5E
100
DictionaryVariables
280
     0
  1
STANDARD
  0
DICTIONARYVAR
  5
84
102
{ACAD_REACTORS
330
5E
102
}
330
5E
100
DictionaryVariables
280
     0
  1
STANDARD
  0
DICTIONARYVAR
  5
227
102
{ACAD_REACTORS
330
5E
102
}
330
5E
100
DictionaryVariables
280
     0
  1
Metric50
  0
DICTIONARYVAR
  5
228
102
{ACAD_REACTORS
330
5E
102
}
330
5E
100
DictionaryVariables
280
     0
  1
Metric50
  0
DICTIONARYVAR
  5
5F
102
{ACAD_REACTORS
330
5E
102
}
330
5E
100
DictionaryVariables
280
     0
  1
2
  0
DICTIONARYVAR
  5
63
102
{ACAD_REACTORS
330
5E
102
}
330
5E
100
DictionaryVariables
280
     0
  1
1
  0
DICTIONARYVAR
  5
1AE
102
{ACAD_REACTORS
330
5E
102
}
330
5E
100
DictionaryVariables
280
     0
  1
0
  0
DICTIONARYVAR
  5
1AF
102
{ACAD_REACTORS
330
5E
102
}
330
5E
100
DictionaryVariables
280
     0
  1
0
  0
DICTIONARYVAR
  5
25F
102
{ACAD_REACTORS
330
5E
102
}
330
5E
100
DictionaryVariables
280
     0
  1
2
  0
DICTIONARY
  5
269
102
{ACAD_REACTORS
330
267
102
}
330
267
100
AcDbDictionary
281
     1
  0
DICTIONARY
  5
268
102
{ACAD_REACTORS
330
267
102
}
330
267
100
AcDbDictionary
281
     1
  3
140689460452896
350
262
  3
140689460452912
350
263
  3
140689460452928
350
264
  3
140689460452944
350
265
  3
140689460452960
350
266
  0
DICTIONARY
  5
236
330
21C
100
AcDbDictionary
280
     1
281
     1
  3
ACAD_XREC_ROUNDTRIP
360
29B
  0
DICTIONARY
  5
205
330
22
100
AcDbDictionary
280
     1
281
     1
  0
DICTIONARY
  5
1F9
330
ED
100
AcDbDictionary
280
     1
281
     1
  3
FBXASSET
360
1FA
  0
DICTIONARY
  5
1F7
330
EC
100
AcDbDictionary
280
     1
281
     1
  3
FBXASSET
360
1F8
  0
DICTIONARY
  5
173
330
EE
100
AcDbDictionary
280
     1
281
     1
  3
BUMPTILE
360
175
  3
DIFFUSETILE
360
174
  3
FBXASSET
360
1FB
  3
OPACITYTILE
360
176
  3
REFLECTIONTILE
360
177
  0
DICTIONARY
  5
234
330
21A
100
AcDbDictionary
280
     1
281
     1
  3
ACAD_XREC_ROUNDTRIP
360
29A
  0
DICTIONARY
  5
162
330
7F
100
AcDbDictionary
280
     1
281
     1
  3
ACAD_ROUNDTRIP_2008_TABLESTYLE_CELLSTYLEMAP
360
260
  0
DICTIONARY
  5
274
330
F5
100
AcDbDictionary
280
     1
281
     1
  3
ACAD_XREC_ROUNDTRIP
360
275
  0
DICTIONARY
  5
272
330
F4
100
AcDbDictionary
280
     1
281
     1
  3
ACAD_XREC_ROUNDTRIP
360
273
  0
DICTIONARY
  5
280
330
FB
100
AcDbDictionary
280
     1
281
     1
  3
ACAD_XREC_ROUNDTRIP
360
281
  0
DICTIONARY
  5
288
330
FF
100
AcDbDictionary
280
     1
281
     1
  3
ACAD_XREC_ROUNDTRIP
360
289
  0
DICTIONARY
  5
27A
330
F8
100
AcDbDictionary
280
     1
281
     1
  3
ACAD_XREC_ROUNDTRIP
360
27B
  0
DICTIONARY
  5
27E
330
FA
100
AcDbDictionary
280
     1
281
     1
  3
ACAD_XREC_ROUNDTRIP
360
27F
  0
DICTIONARY
  5
28E
330
1E6
100
AcDbDictionary
280
     1
281
     1
  3
ACAD_XREC_ROUNDTRIP
360
28F
  0
DICTIONARY
  5
286
330
FE
100
AcDbDictionary
280
     1
281
     1
  3
ACAD_XREC_ROUNDTRIP
360
287
  0
DICTIONARY
  5
26A
330
F0
100
AcDbDictionary
280
     1
281
     1
  3
ACAD_XREC_ROUNDTRIP
360
26B
  0
DICTIONARY
  5
26C
330
F1
100
AcDbDictionary
280
     1
281
     1
  3
ACAD_XREC_ROUNDTRIP
360
26D
  0
DICTIONARY
  5
26E
330
F2
100
AcDbDictionary
280
     1
281
     1
  3
ACAD_XREC_ROUNDTRIP
360
26F
  0
DICTIONARY
  5
270
330
F3
100
AcDbDictionary
280
     1
281
     1
  3
ACAD_XREC_ROUNDTRIP
360
271
  0
DICTIONARY
  5
278
330
F7
100
AcDbDictionary
280
     1
281
     1
  3
ACAD_XREC_ROUNDTRIP
360
279
  0
DICTIONARY
  5
28A
330
1E4
100
AcDbDictionary
280
     1
281
     1
  3
ACAD_XREC_ROUNDTRIP
360
28B
  0
DICTIONARY
  5
284
330
FD
100
AcDbDictionary
280
     1
281
     1
  3
ACAD_XREC_ROUNDTRIP
360
285
  0
DICTIONARY
  5
28C
330
1E5
100
AcDbDictionary
280
     1
281
     1
  3
ACAD_XREC_ROUNDTRIP
360
28D
  0
DICTIONARY
  5
27C
330
F9
100
AcDbDictionary
280
     1
281
     1
  3
ACAD_XREC_ROUNDTRIP
360
27D
  0
DICTIONARY
  5
298
330
1F3
100
AcDbDictionary
280
     1
281
     1
  3
ACAD_XREC_ROUNDTRIP
360
299
  0
DICTIONARY
  5
296
330
1F2
100
AcDbDictionary
280
     1
281
     1
  3
ACAD_XREC_ROUNDTRIP
360
297
  0
DICTIONARY
  5
290
330
1EF
100
AcDbDictionary
280
     1
281
     1
  3
ACAD_XREC_ROUNDTRIP
360
291
  0
DICTIONARY
  5
292
330
1F0
100
AcDbDictionary
280
     1
281
     1
  3
ACAD_XREC_ROUNDTRIP
360
293
  0
DICTIONARY
  5
282
330
FC
100
AcDbDictionary
280
     1
281
     1
  3
ACAD_XREC_ROUNDTRIP
360
283
  0
DICTIONARY
  5
276
330
F6
100
AcDbDictionary
280
     1
281
     1
  3
ACAD_XREC_ROUNDTRIP
360
277
  0
DICTIONARY
  5
294
330
1F1
100
AcDbDictionary
280
     1
281
     1
  3
ACAD_XREC_ROUNDTRIP
360
295
  0
XRECORD
  5
262
102
{ACAD_REACTORS
330
268
102
}
330
268
100
AcDbXrecord
280
     1
  1
AcDb_Thumbnail_Schema
102
{ATTRRECORD
341
263
  2
AcDbDs::TreatedAsObjectData
280
     1
291
     1
102
ATTRRECORD}
102
{ATTRRECORD
341
264
  2
AcDbDs::Legacy
280
     1
291
     1
102
ATTRRECORD}
  2
AcDbDs::ID
280
    10
 91
        8
102
{ATTRRECORD
341
265
  2
AcDs:Indexable
280
     1
291
     1
102
ATTRRECORD}
102
{ATTRRECORD
341
266
  2
AcDbDs::HandleAttribute
280
     7
282
     1
102
ATTRRECORD}
  2
Thumbnail_Data
280
    15
 91
        0
  0
XRECORD
  5
263
102
{ACAD_REACTORS
330
268
102
}
330
268
100
AcDbXrecord
280
     1
  1
AcDbDs::TreatedAsObjectDataSchema
  2
AcDbDs::TreatedAsObjectData
280
     1
 91
        0
  0
XRECORD
  5
264
102
{ACAD_REACTORS
330
268
102
}
330
268
100
AcDbXrecord
280
     1
  1
AcDbDs::LegacySchema
  2
AcDbDs::Legacy
280
     1
 91
        0
  0
XRECORD
  5
265
102
{ACAD_REACTORS
330
268
102
}
330
268
100
AcDbXrecord
280
     1
  1
AcDbDs::IndexedPropertySchema
  2
AcDs:Indexable
280
     1
 91
        0
  0
XRECORD
  5
266
102
{ACAD_REACTORS
330
268
102
}
330
268
100
AcDbXrecord
280
     1
  1
AcDbDs::HandleAttributeSchema
  2
AcDbDs::HandleAttribute
280
     7
 91
        1
284
     1
  0
XRECORD
  5
29B
102
{ACAD_REACTORS
330
236
102
}
330
236
100
AcDbXrecord
280
     1
102
DISPLAYNAME
  1
Metric50
102
FLAGS
 90
        0
  0
XRECORD
  5
1FA
102
{ACAD_REACTORS
330
1F9
102
}
330
1F9
100
AcDbXrecord
280
     1
 70
     1
 90
429727718
  1
D62C5603-E3A1-4AEA-B7FB-FE5D8D0755AF
310
504B03040A0000080000CC70623B3DEE336E79000000790000001B0000006175746F6465736B2D64657369676E2D7061636B6167652E786D6C3C3F786D6C2076657273696F6E3D22312E302220656E636F64696E673D227574662D3822203F3E3C666F726D6174733E3C666F726D61743E687474703A2F2F736368656D612E
310
6175746F6465736B2E636F6D2F64657369676E2D7061636B6167652F323030393C2F666F726D61743E3C2F666F726D6174733E504B0304140006080800CC70623BD486FD9CA0000000F4000000130000005B436F6E74656E745F54797065735D2E786D6C7D8EC10E82300C865F65E91D8A1E8C310C0EEA1BF002731658846E
310
D98AC1B77784ABF1D8FE5FBFBF75BBCE937A534CCEB38643598122B6FEE978D0B0485F9C41B54DDD7D022595594E1A469170414C76A4D9A4D207E29CF43ECE46F218070CC6BECC4078ACAA135ACF422C856C0E68EA1BF5669944DDD7BCDE7B1F8E415D77AECB980613C2E4AC91FC167A2B244592486606FC29C8FD7F045B9A
310
EF7053A7E60B504B0304140006080800CC70623B853B8169EB0000007C01000008000000636F72652E786D6C8D90416EC3201045AF62CDB6C206821CC7C244919D9CA01740401C94182C03558F5F9C3852BBEB6A467FFE9B197D7EFC9E1EC5975982F5AE035262288C535E5B377690E21535501C055FBC8FBF6C503839990E
310
5619041F179FE64D52DE45E362569DD7661365082642A11EB9E920A89B99642953CC8E702F67A9EE7234257977194EC9EAE275C4EABCCF5EAD5940D4AC6F0E35A568B8F43562CD7046CD199FD07E60174276A7BE677B5EADB0E0D14EEFFB6A31321A0D82627C4084204C3F096B71DD52F6819B16635EADF63F509AF53FA164
310
5DDCD1EDDD17164090FCC8732078B56691CB33A85CD7DCC40F504B0304140006080800CC70623B55019EA25F0000007C00000007000000636E782E786D6C4DCB3B0E80201045D1AD90E915ED2CF8AC45050C11660C8261F98AB1B07AC9C97D42D718D865D3E909258CFD00CCE24AC6E326A164D74DC0B4128928FF32603847
310
2BA13128B1252AC747C6BAB984FC68F0B87FE8960A5C09FE86CFB69FBA01504B0304140006080800CC70623BDBABAAF470010000D40300000C0000006662782F636F72652E786D6CC553D16E823014FD95A6AF4B694182CC941A83FA05FB810A9511A125A5257EFE2E82712ECEB8A7F100CD39F7F69E734AF9FADC366850B6
310
AF8DCE7018308C942E4C59EB2AC3DE1D498AD15A706B8CFB56869196ADCAF00863C12B6B7C374385D14E6907A836A59A41D9F7CA615434B0C8705F7CAA5606D23BA8E84F41278B93AC54100640439DE0BDB320004D43C63716C7C399D30917DCFBBA9CD9BA8469F5B156168B24CED3F7248AC8769F27244EB73B92EED8862C
310
B7F13E0C179B3C8F979C8ECD82BBBABDAA2BAC924E9558448CBD9330242CFA08E3154B5651FCC6D215639C8EE5774DBE2B5F6CF2B5768B68963BB5F5588420E442FC700B1139D4CB01F450C1E918227C2E09DF070D8140C84E1E9AAB8F1340832A9CB13130A5F1376A908D57309505ECF2A0DF179C4E9D30F5B239B87E3823
310
7A79C6F31DE1A8A5AEC08474B03C7837EAE4938639B44E5932B833D2C6B6B279CDC613877FA26EE21F4A2A4C63EC7F29A2F301D1F9F7A0E37D145F504B0304140006080800CC70623B9C113CC27E0000009D0000000B0000006662782F636E782E786D6C4DCCDF0A83201C86E15B91DFB94BFB330DD428C8FB886521330DA7
310
6397BF1A1DECE883878F57749FCDA1B7892F1BBC047A23808C7F84D9FA55424E0BE6803A256208E9EF06C84F9B91703228B1C690F78B66B34CD9A5439DF5CF0BFBF65E35BCA1B8D6A5C6F540381E886698B5741C695F9503EBA150A2F8958E3DC3EA0B504B0304140006080800CC70623B7DF2F77C2A010000120200003100
310
00006662782F41393633353835312D344632462D344230382D423046372D3739314545314133324237412F636F72652E786D6C8D51DB8EC22014FC15C2939B0D2DB4B45643319AE817EC0F6041255A68B86CFCFC856D4D76DF7CE190393373060EDB3DC707F856CE6B6B7A480A0C81328395DA5C7B18C3057510EC3873D686
310
3F34088C18550F330C39BB3A1BA7051AAC09CA84841A2BD5020AEF55806078A44B0FFD7053A328440C89E1EFC52486BBB8AA8214A99D789CF9E05200300FC927E4FB4D5B375D43103D5527440FB843077C5AA3F5861C8F645F5787F59E95B390B318B55CE45AA638FAA2957BD7248B390B7A7CC51F9C124149C82B8C378810
310
84AB2F42B7B8DD56F413775B8C5999E9FF4471926F8AA236A1AE96B8B3CC434E5839373893369E1FAF30EA395917409EB7F26AF8801C171837A4A6AC9C89E9F9C9B1A58BA30FD6A5EF5DDDCF894B9AD9B6A59C957943A9FCAE2FD5BC4DFE03504B0304140006080800CC70623BAD7543B64E01000033030000300000006662
310
782F41393633353835312D344632462D344230382D423046372D3739314545314133324237412F636E782E786D6CD593CD6EC32010845F0571AD6CE3D48AD20813A9873E410FBD12D82434182C7EAAE6EDBB2424CD25871E7B41D6EC30B3FA84F9E67BB2E40B4234DE8DB46F1925E094D7C6ED479AD3AE5951B2113C789FEE
310
6C943839C1488B4C05DF079FE72A69D8C96C13AAD6B8631503449F83828872B949AC57D26200B826A308D316B4064D6E46FCDA41C05550DC9E483A00797BFD207EFB092A45DE9514C1BBD22178396BD39D891265658C238DEA00936C654E5E433CB65A26D9F6EDB5EBC14EBF49A45CB856E66048291F6939A9A81BB5C89177
310
38143CA680F4AA299D66A042CEB3354A2684DC9D8D178FE0D9B8B41CAAD720F880EE7EF93C0C18769E099ECC04D5A102C8049A8A05632F4DDF376CF1DE0F6BB65C2F8627B65A33C6BB62177CEBBDAD973006829F89F22E814B54F4BC2BE347F8AA8F681390B50FA73F804400B5F542E796F19FF974E7F78DB802FE05E20750
310
4B0304140006080800CC70623BE75B7789680500003C100000340000006662782F41393633353835312D344632462D344230382D423046372D3739314545314133324237412F6F626A656374732E786D6CAD575B8F9B3818FD2B887D06C22499CB8AA1CA655245D5B455A356FB305264C061D8018C6C3393D95FBFC7600890
310
A4CD5EF210B0B1BFEBF98E3F7B1FF6596ABC522E1296DF9BAE3D320D9A872C4AF2F8DE2CE5CEBA358D0FBEC719939D65A691938CDE9B6ADAF4BD98B3B2D05311DD91329583D9D5FC0F438434A7A611A644887B5384CF34233629258BA878B12322891DEFF6B66BD70BFB62634E8AE781D082709A4B588AF91C528CDA28B73F
310
1C998EEF39EABBEFA97FBD6A7C7E9553F9D3D79FE442923C3C523610337627CB87ABE99D359D4CC6D6E4FACAB5E6ABF9D2726FC6A3C5F56271377BB88362213924694B38DD99FE47C48627A1E7D49F5A8BB5E1A74C0A599ED3B0F21F1E56366B89112D681E218F0915D0D6F17AD41FBA2A369DCF6335D62ABBD39779D5DDD1
310
11D4D8DE3CBB96B2E04FB8202E41051754A1AA8E8F76B4C6DFE810B580B1547F4B84911149794252234D024EF8BBE963A95AE27B3D310A9D5C215C7960FAEE415ED75694C6AFB17BCACA5D99A60A9AA65F217B0BFC53292ACB92BF283FAD0D3621576592CB5BED907C2FA8E9DF794E35E97BEA31BED21FEB401ABB94C44839
310
DCACBF0E1C5DA8DA5B2F4DFFD32AD86F543D9E565E7056502E157C00AD2671CD534549AB752FCA9CDA00677A313F04E51B22FF19E57B300579E3C97EB29F682D92935CEC18CF901B7B54FD8C51F362B56FC72FE0B3C1EAE335EDCCBF5AEC39ADB17DC238973F804BA5E6F6BFE7AF1FB32E523BE9F3BD571418E3631DCA4D48
310
5250CF639223210A9446CA30052EDF057BD35F8329C1ECD84552BF0DC8D18BE7BCE23BFE6BD960AB4A7DE79923A103BEBD80F911CBAA2C60DB19B01CF164A5583B772EE6D3FFA56666CBCDA74DC97724A48F9A58967497E489C4D979006FD7A05E227A1EBDD0F737C623387A9C844D3709995625106D157315F8B8392CD4E0
310
A0B9A720C4BE9829CEF37EA1E13111214D53925356365ADA634861B52519DD27A00AEB808EAF0628E6F435519D446F45CF2C9CF5214F0A15B2F6D06B79DA3EE3CBF7F56780D2F4E7EF73A0F5E5B02A38D07DC852C6B7C1FBB6664213E0C39E3EBA7FF4E1AD23EA2829407C85E586727488B751B2DB9502BC7B228A3FD68B6E
310
A65A22397E690AA8D158D7E404EC8CDA235CC3B7D1898680131CEC2CDF2638C65196279577750F15884AEE19F94199155B92B13297978469D4F8D358DF0AEF7631E28DC8F0D9F437D5D39A83B2231A1D52D543813A824EF8D44BCFF2FA6A31BD1E8DAD87F1CCB526B3879935BF59CDADD5C37479BB1CDD4CA7B3556B516589
310
EF352754B706114D9C885EC9131DE6EFEB43D99AFE2391C2F958179413D7CFEF6B1B6DB1E7600F00DE6E5C67454A339A4BA2E0FBA85ED26F045D454F463DBFCE484C2F90F2E5E3666003662ED8F755951A7D1BECD5B30B550B2785C8E7320B7292A4838DDA71BBC863ED7613CAF659337A3354231D4FF4A182A54904C2898C
310
98B28C4AD0CE056CCF332A80986E571EE9DBC305BB5FEB7E509220A58D25CF042D712A806AC0AD0C657FDEF80D2D9CEAA2EE4D1C76F60BFE74219A06527D6F82DF6412526107381E55E353090704D085B52408A8913C4ED159D79BDA71BB4BC506F4831350EB6F975CD22D69BF7AC49B91A2C0A9DDA3D5CA36AD20FC478E37
310
E61844E2352865EBCB61A275A65283CAAA9DD27703B4102F5AF51EF5F573B75CBB5AD38BC845F7A49F82A0966A49C2E3EA5EA0ECD326CD965F1DB402C6FA8B51A4658C5C5E2EC9E214602E55810345408596591009A82E7E7FFACA19EEA299B14A0081A705CB3296EBC14CDF658DCD336EA6D1136881AAEB87B81AB9EE53D5
310
F5EB8BC8362082DA24122F98680A4E7930C01A0079749CEA14382A0783E5EBA5A10F8C098456A03D6A4AEB6BB881E2513747552A5DB22C7EDAF83BD5528081A365F7FF06504B0304140006080000CC70623B000000000000000000000000350000006662782F41393633353835312D344632462D344230382D423046372D37
310
39314545314133324237412F76657274696365732E62696E504B0304140006080800CC70623BF270F1330600000004000000360000006662782F41393633353835312D344632462D344230382D423046372D3739314545314133324237412F747269616E676C65732E62696E636660600000504B0304140006080000CC7062
310
3B000000000000000000000000370000006662782F41393633353835312D344632462D344230382D423046372D3739314545314133324237412F617474726962757465732E62696E504B0304140006080800CC70623B08DA0BD19000000041010000360000006662782F41393633353835312D344632462D344230382D4230
310
46372D3739314545314133324237412F6469726563746F72792E786D6C858F410AC3201045AF22B36F53E9A60B35CBEEBAE80D244E44489C6234F4F835464A48035D0DF398FF9F8AF63D0E6CC63039F212F8F9020C7D47C6792B21C5FE7403D62A1188E2E60C98D7234A5830286103A55745067B9D86B8A3CF9C7F90C11DE6
310
07FB144396D7B6A82D282E9A152AD114D5EF2CB866EEE831B8EEA07A7BB5A8D7D61A2BAAEB7FD5F70921FF497D00504B0304140006080800CC70623BEDD1DC58FD000000A00100003B0000006662782F41393633353835312D344632462D344230382D423046372D3739314545314133324237412F7265736F75726365732F
310
636F72652E786D6C8D504B6E833010BD0A9A6D65B00922041947112427E8052C33A156828DFCA97AFC9A40A576D7CDCCE87D344F8F9FBFE667F689CE6B6B3A6039850C8DB2A336530731DC4903D95970676DF82583CCC8193B5861107C72362E3BA4AC096842428D1D7107A5F7182053CF7474E0D507CE32973124857FE48B
310
540F3961CEF244279DE03EB81420DB9EAC1384436FA353E879B1B182C7A8C75DA3C7F453DF353A1075D537A7BA6464B8F535A99AE14A9A2BBD90E350DD183B5CFABE3AF262350B1EF4FC9351399401471025A527C218A1E53BAB5A5AB765F5469B96525EACF23FA6B88CFF34456DC2A1DCE36E360F82A5202F42F062ED2BAD
310
579969AFDD8A6F504B010214000A0000080000CC70623B3DEE336E79000000790000001B00000000000000000000000000000000006175746F6465736B2D64657369676E2D7061636B6167652E786D6C504B01021400140006080800CC70623BD486FD9CA0000000F40000001300000000000000000000000000B20000005B
310
436F6E74656E745F54797065735D2E786D6C504B01021400140006080800CC70623B853B8169EB0000007C010000080000000000000000000000000083010000636F72652E786D6C504B01021400140006080800CC70623B55019EA25F0000007C000000070000000000000000000000000094020000636E782E786D6C504B
310
01021400140006080800CC70623BDBABAAF470010000D40300000C00000000000000000000000000180300006662782F636F72652E786D6C504B01021400140006080800CC70623B9C113CC27E0000009D0000000B00000000000000000000000000B20400006662782F636E782E786D6C504B01021400140006080800CC70
310
623B7DF2F77C2A010000120200003100000000000000000000000000590500006662782F41393633353835312D344632462D344230382D423046372D3739314545314133324237412F636F72652E786D6C504B01021400140006080800CC70623BAD7543B64E010000330300003000000000000000000000000000D2060000
310
6662782F41393633353835312D344632462D344230382D423046372D3739314545314133324237412F636E782E786D6C504B01021400140006080800CC70623BE75B7789680500003C10000034000000000000000000000000006E0800006662782F41393633353835312D344632462D344230382D423046372D3739314545
310
314133324237412F6F626A656374732E786D6C504B01021400140006080000CC70623B0000000000000000000000003500000000000000000000000000280E00006662782F41393633353835312D344632462D344230382D423046372D3739314545314133324237412F76657274696365732E62696E504B01021400140006
310
080800CC70623BF270F133060000000400000036000000000000000000000000007B0E00006662782F41393633353835312D344632462D344230382D423046372D3739314545314133324237412F747269616E676C65732E62696E504B01021400140006080000CC70623B0000000000000000000000003700000000000000
310
000000000000D50E00006662782F41393633353835312D344632462D344230382D423046372D3739314545314133324237412F617474726962757465732E62696E504B01021400140006080800CC70623B08DA0BD1900000004101000036000000000000000000000000002A0F00006662782F41393633353835312D344632
310
462D344230382D423046372D3739314545314133324237412F6469726563746F72792E786D6C504B01021400140006080800CC70623BEDD1DC58FD000000A00100003B000000000000000000000000000E1000006662782F41393633353835312D344632462D344230382D423046372D3739314545314133324237412F7265
310
736F75726365732F636F72652E786D6C504B0506000000000E000E0080040000641100000000
  0
XRECORD
  5
1F8
102
{ACAD_REACTORS
330
1F7
102
}
330
1F7
100
AcDbXrecord
280
     1
 70
     1
 90
429727718
  1
30362254-06B7-45E0-A893-8CFA70E3D6BC
310
504B03040A0000080000CC70623B3DEE336E79000000790000001B0000006175746F6465736B2D64657369676E2D7061636B6167652E786D6C3C3F786D6C2076657273696F6E3D22312E302220656E636F64696E673D227574662D3822203F3E3C666F726D6174733E3C666F726D61743E687474703A2F2F736368656D612E
310
6175746F6465736B2E636F6D2F64657369676E2D7061636B6167652F323030393C2F666F726D61743E3C2F666F726D6174733E504B0304140006080800CC70623BD486FD9CA0000000F4000000130000005B436F6E74656E745F54797065735D2E786D6C7D8EC10E82300C865F65E91D8A1E8C310C0EEA1BF002731658846E
310
D98AC1B77784ABF1D8FE5FBFBF75BBCE937A534CCEB38643598122B6FEE978D0B0485F9C41B54DDD7D022595594E1A469170414C76A4D9A4D207E29CF43ECE46F218070CC6BECC4078ACAA135ACF422C856C0E68EA1BF5669944DDD7BCDE7B1F8E415D77AECB980613C2E4AC91FC167A2B244592486606FC29C8FD7F045B9A
310
EF7053A7E60B504B0304140006080800CC70623B1EC5D7A3EB0000007C01000008000000636F72652E786D6C8D90416EC3201045AF82665B6103C6756C6122AB4D4ED00B204C5C94182C03558F5F9C3852BBEB6A467FFE9B197D71FC9E6FE8CBACC17AD7032D0820E3B41FAD9B7A48F1820F808E52ACDEC75F36404ECDA687
310
4D0629A6D5A76597B477D1B89855E747B38B2A041301E95B6E7A08FAD3CCAA50296647B8168BD2573599823EBB0CA76447F43862C7BCCF5EAC59410E4DDD9C7973C2755553CCCFA4C603E3040F1565ED3B1FDE4E432BCA0D9622DAF9795FAF464533826484B498524CD807E51D79ED187F21878E10516EF63F505AC67F42C9
310
BA58B1FDDD071640D2FCC87D2045B96591CB3DA85CB7DCE40F504B0304140006080800CC70623B55019EA25F0000007C00000007000000636E782E786D6C4DCB3B0E80201045D1AD90E915ED2CF8AC45050C11660C8261F98AB1B07AC9C97D42D718D865D3E909258CFD00CCE24AC6E326A164D74DC0B4128928FF32603847
310
2BA13128B1252AC747C6BAB984FC68F0B87FE8960A5C09FE86CFB69FBA01504B0304140006080800CC70623B8C9102E971010000D40300000C0000006662782F636F72652E786D6CC5535B6E833010BC8AE5DF0A6C08340F1947A84D4ED00B38C6A128602363A31CBFCB234A53A551FA553EC09AD9F5CE8C31DB9E9B1AF5CA
310
7695D1198E428A91D2D214952E33ECDD315861B4E5CC1AE3BE9561A445A3323CC098B3D21ADFCE9034DA29ED00D5A6503328BA4E398C640D8B0C77F253352214DE4145770A5B214FA2546114020D759C75CE8200340D19DE981F0F6746269C33EFAB6266AB02A655C74A59CCF365BADC27CB5D902ED22848F6340DF238A141
310
BE88E2F57B92BFEDF23523433367AE6A2EEAA455C2A902F398D2751045018D3FA264435F3771F242571B4A1919CA6F9A7C5B3CD9E42BED16F12C776AEB308F40C848FC700B1139D4891EF410CEC810227CC6846F8386402064270EF5C5C709A05E49676C024C61FC95EA45ED154CA5211D1FF4FB8291A913A68E9B83EBBB33
310
E2A7673CDE118E5AE8124C0807CB8377834E366998436B950D7A7746DAD846D4CFD978E0F04FD455FC5D49D2D4C6FE9722321F10997F0F32DC47FE05504B0304140006080800CC70623BFFEA85907E0000009D0000000B0000006662782F636E782E786D6C4DCCD10A83201886E15B91FFDC95D95A811AB6F23E625948A6C3
310
E9D8E5AF46073BFAE0E1E365ED67B3E8ADC3CB78C7815C7240DA3DFC64DCC221C519D7805AC182F7F1EF06C88D9BE6703008B6049F9E274D7A1E938DBB5AE3D6131B2589BA0D3D965551E0B2EA732C9B9A624AAEB41E3A557677029960D9AFB4EF11165F504B0304140006080800CC70623B4FEEA4082C0100001202000031
310
0000006662782F39464131463745442D413632322D343644302D413938332D3331353338454246344243312F636F72652E786D6C8D515B6EC32010BC0AE2AB55850DD871ED0813254D72825EC00192A2C460F1A872FC42ED48ED5F7E00CDCECCCEB26C731F6FE05B39AFADE921293004CA082BB5B9F43086336A21D870E6AC
310
0D7F68109861543DCC30E4ECE26C9C164858139409093556AA051CBC570102714B8F1E7AF1A5C6A11862480C7F2DA6415C878B2A4891CA89C7990F2E050073937C42DE1DB7E4F87ED8A36D4329AA9B3D46DBAEAD504556557BD81DEBDD0761E52CE42C462D17B996298E3E6BE59E35C962CE821E1FF18553435012728A7187
310
0841987E927A8D9B35ADDF70BBC6989599FE4F1427F9A4286A132ABAC49D651EF234CD5CE04CDA78BA3DC2A8FB645D00B9DF8B57E215725C60BCA2A463E54C4CE327C7A65E1C7DB02E7DEFCBF594B864C5CA6CDBD49C957943E9FA5D5FBAF336F90F504B0304140006080800CC70623BAD7543B64E01000033030000300000
310
006662782F39464131463745442D413632322D343644302D413938332D3331353338454246344243312F636E782E786D6CD593CD6EC32010845F0571AD6CE3D48AD20813A9873E410FBD12D82434182C7EAAE6EDBB2424CD25871E7B41D6EC30B3FA84F9E67BB2E40B4234DE8DB46F1925E094D7C6ED479AD3AE5951B2113C
310
789FEE6C943839C1488B4C05DF079FE72A69D8C96C13AAD6B8631503449F83828872B949AC57D26200B826A308D316B4064D6E46FCDA41C05550DC9E483A00797BFD207EFB092A45DE9514C1BBD22178396BD39D891265658C238DEA00936C654E5E433CB65A26D9F6EDB5EBC14EBF49A45CB856E66048291F6939A9A81BB5
310
C8917738143CA680F4AA299D66A042CEB3354A2684DC9D8D178FE0D9B8B41CAAD720F880EE7EF93C0C18769E099ECC04D5A102C8049A8A05632F4DDF376CF1DE0F6BB65C2F8627B65A33C6BB62177CEBBDAD973006829F89F22E814B54F4BC2BE347F8AA8F681390B50FA73F804400B5F542E796F19FF974E7F78DB802FE05
310
E207504B0304140006080800CC70623B16AB87BA640500003C100000340000006662782F39464131463745442D413632322D343644302D413938332D3331353338454246344243312F6F626A656374732E786D6CAD575B6FA33818FD2B887DE6924B3BED8A326A92B68A663B534DD4D13E548A0C38942D60649B369D5FBFC7
310
600890A493BDE42160637FD7F31D7FF63E6FB3D478A55C242CBF3247B66B1A340F5994E4F19559CA8D75611A9F7D8F33263BCB4C232719BD32D5B4E97B316765A1A722BA21652A07B3B7B33F0D11D29C9A46981221AE4C113ED38CD8A4942CA2E2C58E882476BCD9DA23BB5ED8171B73523C0F841684D35CC252CCE79062D4
310
468DFA43D7747CCF51DF7D4FFDEB5593E3AB9CCA9FBEFE241792E4E19EB28198C968BAB8199F5D5A67D3E9C49A9E8F47D6EC76B6B0469F26EEFC7C3EBFBCBEB98462213924694B38DD98FE1D62C393D073EA4FADC5DAF04326852CCF6958F90F0F2B9BB5C48816348F90C7840A68EB78EDF68723159BCEE7891A6B95DDE9D3
310
BCEAEEE8086A6C6F9E5D4B59F0175C10A7A0820BAA5055C7473B5AE3CFDD452D602CD5DF12616444529E90D448938013FE6EFA58AA96F85E4F8C42275708571E98FE6827AF6B2B4AE3D7D83D64E5A64C53054DD3AF90BD06FEA9149565C94FCA0F6B834DC85599E4F2423B24DF0B6AFA979E534DFA9E7A4CC6FA631D486393
310
921829879BF5D781A373557BCB85E97FB90DB62B558F8795179C15944B051F40AB495CF35451D26A4727654E6D8033BD98EF82F21D91FF8AF2DD9982BCF1643BDD4EB516C9492E368C67C88DED563FC36D5EACF66DFF057C3658BDBFA69DF9578B3DA735B64F18C7F20770A9D45CFCF7FCF563D6456A277DBEF78A02637CA2
310
43B90A490AEAB94F72244481D24819A6C0E59B606BFA4B3025981DBB48EAB701D97BF19C577CC77F2D1B6C55A9EF3C732474C0B727303F625995056C3B02963D9EAC146BE78EC5FCEC7FA999EBC5EACBAAE41B12D27B4D2C0BBA49F244E2ECDC81B76B502F113D8F5EE8FB1BE3111CDD4FC2AA9B844CAB1288B68AB90A7CDC
310
1C166AB0D3DC5310625FCC14E779BFD0709F8890A629C9292B1B2DED31A4B0DA928CEE135085754027E3018A397D4D5427D15BD1330B677DC8934285AC3DF45A9EB68FF8F2B8FC0A509AFEECFD0FF2DE25CC6047F7214B195F07EFEB9A094D800F7BFAE8FED187B78EA8A3A400F115961BCAD1215E47C966530AF0EE8128FE
310
58CEBB996A8964FFA529A046635D9353B0336A8F700DDF46271A024E70B0B37C9DE01847591E54DED53D54202AB947E4076556AC49C6CA5C9E1226B7F1A7B1BE15DEED62C41B91E1B3E9AFAAA735036547343A925075041DF0A9979E893B391F8FCFA6967B3EFB644DCF6E5CEBFAE272625DCC6FAF3FB93793C5F90CE1EF57
310
407342756B10D1C489E8953CD1617E5CEECAD6F4EF8914CE5D5D504E5C3F1F9736DA62CFC11E00BCDDB8CC8A9466349744C1F75EBDA4DF09BA8A9E8C7A7E9991989E20E5DBDD6A6003664ED8F7A04A8DBE0DF6EAD9B9AA858342E47399053949D2C146EDB85DE4B176BB0965FBAC19BD19AA918E27FA50C1D22402E144464C
310
59462568E704B6E71915404CB72B8FF4EDE184DDAF753F284990D2C6926782963815403548A70C657FDEF80D2D9CEAA2AE4C1C76F60BFE74219A06527D6582DF6412526107381E55E353090704D085B52408D0933C4ED159D79BDA71BB4BC506F4831350EB6F979CD22D69BF7AC49B91A2C0A9DDA3D5CA36AD20FC478E37E6
310
1844E2352865EBCB6EA275A652E3836BE04EFB400BF1A2556F515F1FBB35B2AB35BD889C744FFA1004B5544B121E57F70215746DD2F5E2C1412B602CBF19455AC6C8E5E9922C4E01E65215385004546899059180EAFCF7A707CE7017CD8CDB0410789AB32C63B91E5CEBBBACB17AC6CD347A022D5075FD106377347AAABA7E
310
7D11590744509B44E205134DC1290F06580320F78E537D3D73540E06CB970B431F185308AD40BBD794D6D77003C5A36E8EAA54BA64597CD8F83BD552A080A365F7FF06504B0304140006080000CC70623B000000000000000000000000350000006662782F39464131463745442D413632322D343644302D413938332D3331
310
353338454246344243312F76657274696365732E62696E504B0304140006080800CC70623BF270F1330600000004000000360000006662782F39464131463745442D413632322D343644302D413938332D3331353338454246344243312F747269616E676C65732E62696E636660600000504B0304140006080000CC70623B
310
000000000000000000000000370000006662782F39464131463745442D413632322D343644302D413938332D3331353338454246344243312F617474726962757465732E62696E504B0304140006080800CC70623B08DA0BD19000000041010000360000006662782F39464131463745442D413632322D343644302D413938
310
332D3331353338454246344243312F6469726563746F72792E786D6C858F410AC3201045AF22B36F53E9A60B35CBEEBAE80D244E44489C6234F4F835464A48035D0DF398FF9F8AF63D0E6CC63039F212F8F9020C7D47C6792B21C5FE7403D62A1188E2E60C98D7234A5830286103A55745067B9D86B8A3CF9C7F90C11DE607
310
FB144396D7B6A82D282E9A152AD114D5EF2CB866EEE831B8EEA07A7BB5A8D7D61A2BAAEB7FD5F70921FF497D00504B0304140006080800CC70623B0D6EF93BFE000000A00100003B0000006662782F39464131463745442D413632322D343644302D413938332D3331353338454246344243312F7265736F75726365732F63
310
6F72652E786D6C8D50596E833010BD0A9ADFCA60B334011947A8694ED00B586642AC041B79A97AFC9A40A5F6AF3F33A3B7689E1E3F7DCD8FEC139DD7D6F4C0720A191A65476DA61E62B892236427C19DB5E1970C322367EC618541F0C9D9B8EC90B226A009093576C41D94DE63804C3DD2D18357379C652E63480A7FCF17A9
310
EE72C29CE5894E3AC17D702940B63D59270887DE46A7D0F36263058F518FBB468FE9A7BE6A7420864373B8D4873369AA8691FA421B3294352543C5CAF65C0F6FEF43CB8BD52C78D0F34F46E550061C419494B6843142CB0F5677F4B52BEB177AEC28E5C52AFF638ACBF84F53D42654E51E77B379102C05791282176B5F693D
310
CB4C7BED567C03504B010214000A0000080000CC70623B3DEE336E79000000790000001B00000000000000000000000000000000006175746F6465736B2D64657369676E2D7061636B6167652E786D6C504B01021400140006080800CC70623BD486FD9CA0000000F40000001300000000000000000000000000B20000005B
310
436F6E74656E745F54797065735D2E786D6C504B01021400140006080800CC70623B1EC5D7A3EB0000007C010000080000000000000000000000000083010000636F72652E786D6C504B01021400140006080800CC70623B55019EA25F0000007C000000070000000000000000000000000094020000636E782E786D6C504B
310
01021400140006080800CC70623B8C9102E971010000D40300000C00000000000000000000000000180300006662782F636F72652E786D6C504B01021400140006080800CC70623BFFEA85907E0000009D0000000B00000000000000000000000000B30400006662782F636E782E786D6C504B01021400140006080800CC70
310
623B4FEEA4082C0100001202000031000000000000000000000000005A0500006662782F39464131463745442D413632322D343644302D413938332D3331353338454246344243312F636F72652E786D6C504B01021400140006080800CC70623BAD7543B64E010000330300003000000000000000000000000000D5060000
310
6662782F39464131463745442D413632322D343644302D413938332D3331353338454246344243312F636E782E786D6C504B01021400140006080800CC70623B16AB87BA640500003C1000003400000000000000000000000000710800006662782F39464131463745442D413632322D343644302D413938332D3331353338
310
454246344243312F6F626A656374732E786D6C504B01021400140006080000CC70623B0000000000000000000000003500000000000000000000000000270E00006662782F39464131463745442D413632322D343644302D413938332D3331353338454246344243312F76657274696365732E62696E504B01021400140006
310
080800CC70623BF270F133060000000400000036000000000000000000000000007A0E00006662782F39464131463745442D413632322D343644302D413938332D3331353338454246344243312F747269616E676C65732E62696E504B01021400140006080000CC70623B0000000000000000000000003700000000000000
310
000000000000D40E00006662782F39464131463745442D413632322D343644302D413938332D3331353338454246344243312F617474726962757465732E62696E504B01021400140006080800CC70623B08DA0BD190000000410100003600000000000000000000000000290F00006662782F39464131463745442D413632
310
322D343644302D413938332D3331353338454246344243312F6469726563746F72792E786D6C504B01021400140006080800CC70623B0D6EF93BFE000000A00100003B000000000000000000000000000D1000006662782F39464131463745442D413632322D343644302D413938332D3331353338454246344243312F7265
310
736F75726365732F636F72652E786D6C504B0506000000000E000E0080040000641100000000
  0
XRECORD
  5
175
102
{ACAD_REACTORS
330
173
102
}
330
173
100
AcDbXrecord
280
     1
270
     1
271
     1
  0
XRECORD
  5
174
102
{ACAD_REACTORS
330
173
102
}
330
173
100
AcDbXrecord
280
     1
270
     1
271
     1
  0
XRECORD
  5
1FB
102
{ACAD_REACTORS
330
173
102
}
330
173
100
AcDbXrecord
280
     1
 70
     0
 90
1673772943
  1
ECE7A1D2-D628-4531-984C-D00F80459256
310
504B03040A0000080000CC70623B3DEE336E79000000790000001B0000006175746F6465736B2D64657369676E2D7061636B6167652E786D6C3C3F786D6C2076657273696F6E3D22312E302220656E636F64696E673D227574662D3822203F3E3C666F726D6174733E3C666F726D61743E687474703A2F2F736368656D612E
310
6175746F6465736B2E636F6D2F64657369676E2D7061636B6167652F323030393C2F666F726D61743E3C2F666F726D6174733E504B0304140006080800CC70623BD486FD9CA0000000F4000000130000005B436F6E74656E745F54797065735D2E786D6C7D8EC10E82300C865F65E91D8A1E8C310C0EEA1BF002731658846E
310
D98AC1B77784ABF1D8FE5FBFBF75BBCE937A534CCEB38643598122B6FEE978D0B0485F9C41B54DDD7D022595594E1A469170414C76A4D9A4D207E29CF43ECE46F218070CC6BECC4078ACAA135ACF422C856C0E68EA1BF5669944DDD7BCDE7B1F8E415D77AECB980613C2E4AC91FC167A2B244592486606FC29C8FD7F045B9A
310
EF7053A7E60B504B0304140006080800CC70623BD9DDAED0EC0000007C01000008000000636F72652E786D6C8D90416EC3201045AF82665B61836D9CD8C2444DD39CA01740405C94182C03558F5F9C3852BBEB6A467FFE9B197D7EF89E6EE8CB2CC17A37002D0820E394D7D68D03A478C17B4007C117EFE32F1B20272733C0
310
2A83E0E3E2D3BC49CABB685CCCAAF3DA6CA20CC14440EA969B0182FA34932C648AD911AEC52CD5558EA6A0CF2EC329598D1E47ACCEFBECC59A050463A7EA5833865FEBDD0E37353BE3EE8DBDE3F6786A48D375FBF6CC78B9C282473B3DEFABC5C86834888A900E538A49F5419B9EB47DD5BC907D4F082F57FB1F28CDFA9F50
310
B22ED6D5F6EE030B20687EE43E10BC5CB3C8E51E54AE6B6EE207504B0304140006080800CC70623B55019EA25F0000007C00000007000000636E782E786D6C4DCB3B0E80201045D1AD90E915ED2CF8AC45050C11660C8261F98AB1B07AC9C97D42D718D865D3E909258CFD00CCE24AC6E326A164D74DC0B4128928FF326038
310
472BA13128B1252AC747C6BAB984FC68F0B87FE8960A5C09FE86CFB69FBA01504B0304140006080800CC70623BA24EB22D72010000D40300000C0000006662782F636F72652E786D6CC5535B6E833010BC8AE5DF0A6C5E49888CA3A6694ED00B38E05014B091B1518EDFE511A5A9D228FD2A1F60CDEC7A67C6986DCE4D8D7A
310
69BA4AAB0C073EC548AA5C17952A33ECECD15B61B4E1CC686DBF9561A44423333CC098B3D268D7CE50AE9595CA02AA74216750749DB418E5352C32DCE59FB211BE70162ABA93DF8AFC244AE9073ED050C759670D0840D390E18DF9F1706664C23973AE2A66B62A605A75ACA4C13C4976E1364A12EF355A2EBD384AF65EFA96
310
BC7B8BED2EA6719AAE16FB8491A199335B351775B991C2CA02F390D2D40B028F861F41BCA68B7518BFD0D59A524686F29B26D7164F36B94AD9289CE54E6D1DE6010819891F6E21228B3AD1831EC219194284CF98F06DD01008846CC5A1BEF83801D4CBDC6A1303536877A57A513B0953A94FC707FDBE6064EA84A9E3E6E0FA
310
EE8CF0E9198F7784A316AA0413C2C2F2E0ECA0934D1AE6D05A69BCDE9E91D2A611F573361E38FC1375157F5752AE6B6DFE4B11990F88CCBF0719EE23FF02504B0304140006080800CC70623B408A7D3B7C0000009D0000000B0000006662782F636E782E786D6C4DCCD10A83201886E15B91FFDC552A92A0064DBC8F581632
310
D3703A76F9ABD1C18E3E78F878E5F0D9027ABBFCF2292AE86E2D20171F69F6715550CB827B40839639A5F2770314A7CD293819B45C73AAFB45B35BA61ACAA1C1C7E7855C58C15BC331339661262CC762340413D68D77DA5B42298546CBE6573AF60CEB2F504B0304140006080800CC70623B449FB9BD290100001202000031
310
0000006662782F36394639363044362D344446342D343946362D394244322D3234314243333846323333332F636F72652E786D6C8D515B6EC32010BC0AE22B55850D98B871848994463E412FE002495162B07854397EA176A4F62F3F2C9A9D991D587EB84F37F0AD7D30CEF6905418026DA553C65E7A98E219ED203808EE9D
310
8B7F6810D871D23D2C3014FCE25D9A57483A1BB58D19B54EE9151C43D0110279CB971E06F9A5A7B11A53CC8C70ADE6515EC78BAE4895DB992778883E0700CB907242D17643D7E2538BD869608875438BBAE38922CAC8F1BDD90DB4691A5E2F42C153326A951B95E398B3D1FE599322163C9AE9115F7A3D46ADA0A018778810
310
84E907617BDCEE297BC5BB3DC6BC2EF47FA234AB2745C9D8D8D035EE220B50105E2F0DC1954B9FB747187D9F9D8FA0CCDB042D5FA0C015C65B42DF78BD10F3F3B363CB56C7109DCFDFBBB97E662ED92EB62D13BC2E1BCAE5777DB9966D8A1F504B0304140006080800CC70623BAD7543B64E01000033030000300000006662
310
782F36394639363044362D344446342D343946362D394244322D3234314243333846323333332F636E782E786D6CD593CD6EC32010845F0571AD6CE3D48AD20813A9873E410FBD12D82434182C7EAAE6EDBB2424CD25871E7B41D6EC30B3FA84F9E67BB2E40B4234DE8DB46F1925E094D7C6ED479AD3AE5951B2113C789FEE
310
6C943839C1488B4C05DF079FE72A69D8C96C13AAD6B8631503449F83828872B949AC57D26200B826A308D316B4064D6E46FCDA41C05550DC9E483A00797BFD207EFB092A45DE9514C1BBD22178396BD39D891265658C238DEA00936C654E5E433CB65A26D9F6EDB5EBC14EBF49A45CB856E66048291F6939A9A81BB5C89177
310
38143CA680F4AA299D66A042CEB3354A2684DC9D8D178FE0D9B8B41CAAD720F880EE7EF93C0C18769E099ECC04D5A102C8049A8A05632F4DDF376CF1DE0F6BB65C2F8627B65A33C6BB62177CEBBDAD973006829F89F22E814B54F4BC2BE347F8AA8F681390B50FA73F804400B5F542E796F19FF974E7F78DB802FE05E20750
310
4B0304140006080800CC70623B8D05915C650500003B100000340000006662782F36394639363044362D344446342D343946362D394244322D3234314243333846323333332F6F626A656374732E786D6CAD575B6FA33814FE2B887D06429276DA1565D4266D158D3A339A6846FB502932E050B66023DB74D2FDF5FB190C01
310
9276B2973C046C8ECFF53B17071F77456EBD502133CEAE6CDF9DD81665314F32965ED995DA3A17B6F5310C04E7AA47665B8C14F4CAD6DB7618A48257A5D94AE89654B91AEDDEDDFC61C998326A5B714EA4BCB265FC440BE2924AF184CA6737218AB8E976E7FA6E4338649B0A523E8D98964450A6A029F619B8588D52FE7039
310
B1BD30F0F4F730D0FF866AF6369557DB33949F31A9088B0F848DD8CCFCF9F2767A76E99CCDE733677E3EF59D9BBB9BA5E37F984D16E78BC5E5F5ED25044B25C0C96822E8D60EEFE11B91C581D77CEA34368A1F5329E68CD1B8B61F16D63A1B8E092D294B10C78C4A48EB593D192E7DED9BDEE7995E1B91FDEDD3ACEA9FE831
310
6A756F9F7D4D79F4274C90A7A04248AA51D5F8C718DAE06FB2F75AC4796EBE65D22A88A22223B995679120E2D50E41AA49C260C046A35368846B0BECD0DFF3EBEB8AD4F835768F69B9ADF25C43D30E6B646F807FAA64AD59F61715C7A54127C4AACA98BA3006A9D792DAE165E0D59B61A01FB3A9F9D838D2DAE62445C86166
310
F37564E842E7DE6A69879FEEA2DD5AE7E371E1A5E025154AC307D06A03D73EB5978C58FFA4C8E9033066E0F3BD53BEC1F39F91BE7B55103791EDE6BBB991A2046172CB4581D8B893FA674DDA17A77B3B7C413D1B511FD2743BFF8A38F03A658705E3ADF8015C3A3417FF3D7E439FF591DA0B5F18BC20C1B8981957AE6392A3
310
F43C640C01D1A0B4728E2DD4F26DB4B3C3152A252A3B4E913CEC1C72F012782FF88EFF8637AA552DBEF76408E8A8DE9E50F9E1CB3A2DA0DB1B6039A893B56063DC5B3E3FFB5F72E67AB9FEB4AEC496C4F4C1149625DD662C53E89D7BF0F6151A046260D1337DFDC94502430F83B0EE07A130A224BCAD7DAE1D9FB6CD422FF6
310
920702629C4BB9AE79C12F243C6432A6794E18E5552BA56B431AAB5D91317302B2B071E86C3A42B1A02F999E24061403B5D0EB639195DA655DD3EBEAB4FB862DDF579F014AD0E73C22F99E28DA57FB98E75C6CA2D74D53086D600F4786E0FE3144B771A8A7B900F03594DB8A633CBC49B2EDB69228BB479CF863B5E807AAAB
310
23872F6DFEB4129B949CA33823F58830E86D65621E10047D9DB34D862E8EAC3C2ABC2F7B2C40D67CDFE01F5545B92105AF983AC54D93D69E56FB8E797F88913F898A9FEC705D3F9D1B54EC8426FB500D40A03BD0119B06E1B95DDC7EB8F6975367793EBD70E66733DFB9BC982F9CE564727731999F5D4ECFCE3B8D6A4DC2A0
310
6D50FD148437D110834A64C6CDDF57FBACB5C307A2A477DFE4939736CFEF2B175371E0E10CF0DD1D5C15654E0BCA14D1E87DD02FF93782A162C0A3D95F1524A52770F972BF1EE9809D13CE7DD599467F8ECE9ADD85CE85A34CD45355448C64F9E8A031DC2D596ACC6E5DD93D9B82DE2EF5CAF81363A8E47996A0DE24564A79
310
4115AACE09C55E14540231FDA13C319787134EBF34E3A022514E5B4D9E0826E25C02D5805B15ABE1BEF51B26383D445DD9E875EE33FE4C22DA16427D65A3BCA92CA6D28DD01DF5DC53330704308475351050232CCD31583787BA75774AFB06E5070DD0C8EF484E19968C5D83BA5B90B244D31E54D55A372320FE4786B7EA58
310
44E135AA5467CB7EA333A61683CC6A8C3257034C10CF46F40EF9F5BE59BE5BD30C3C72D235E95D10345C1D45445A5F0BB47E46A5EBE5570F9380B5FA629579952296A773720405982B9DE04011506178964401AA8BDF1FBF0A8EAB6861DD6580C0E38217056766716DAEB2D6FA0917D3E4116581EADB879C4E7CFFB11EFACD
310
3D641311495D92C8676CB409A72D18610D803CE8A626049E8EC1887CB5B44CC39883690DDA8399B4B9855B481E7D71D4A9D22F96E5BB73BF5793020C02137BF837504B0304140006080000CC70623B000000000000000000000000350000006662782F36394639363044362D344446342D343946362D394244322D32343142
310
43333846323333332F76657274696365732E62696E504B0304140006080800CC70623BF270F1330600000004000000360000006662782F36394639363044362D344446342D343946362D394244322D3234314243333846323333332F747269616E676C65732E62696E636660600000504B0304140006080000CC70623B0000
310
00000000000000000000370000006662782F36394639363044362D344446342D343946362D394244322D3234314243333846323333332F617474726962757465732E62696E504B0304140006080800CC70623B08DA0BD19000000041010000360000006662782F36394639363044362D344446342D343946362D394244322D
310
3234314243333846323333332F6469726563746F72792E786D6C858F410AC3201045AF22B36F53E9A60B35CBEEBAE80D244E44489C6234F4F835464A48035D0DF398FF9F8AF63D0E6CC63039F212F8F9020C7D47C6792B21C5FE7403D62A1188E2E60C98D7234A5830286103A55745067B9D86B8A3CF9C7F90C11DE607FB14
310
4396D7B6A82D282E9A152AD114D5EF2CB866EEE831B8EEA07A7BB5A8D7D61A2BAAEB7FD5F70921FF497D00504B0304140006080800CC70623BCA768048FE000000A00100003B0000006662782F36394639363044362D344446342D343946362D394244322D3234314243333846323333332F7265736F75726365732F636F72
310
652E786D6C8D50596E833010BD0A9ADFCA60D600328E9AA639412F609909B1126CE4A5EAF16B0295DABFFECC8CDEA2797AECF8353F924FB44E193D409E5248504B332A3D0D10FC95B4901C39B3C6F85F3248B49871801506CE266BC2B243D2688FDA47549B11775038871E12F988C7004EDE7016A9083E2ADC3D5D84BC8B09
310
D33C8D74D471E6BC8D0192EDC93A815B742658898E651BCB59086ADC356A8C3FD555A1055ED7E7E254D615792D0F075295F585746FF53B694EE78A565DD736979A65AB9933AFE69F8CD2A2F038022F28ED489E135A7CE4554F9BBEA85E68DB53CAB255FEC71496F19FA6A0B42F8B3DEE6673C0F318E4497096AD7DC5F52C33
310
EEB55BFE0D504B010214000A0000080000CC70623B3DEE336E79000000790000001B00000000000000000000000000000000006175746F6465736B2D64657369676E2D7061636B6167652E786D6C504B01021400140006080800CC70623BD486FD9CA0000000F40000001300000000000000000000000000B20000005B436F
310
6E74656E745F54797065735D2E786D6C504B01021400140006080800CC70623BD9DDAED0EC0000007C010000080000000000000000000000000083010000636F72652E786D6C504B01021400140006080800CC70623B55019EA25F0000007C000000070000000000000000000000000095020000636E782E786D6C504B0102
310
1400140006080800CC70623BA24EB22D72010000D40300000C00000000000000000000000000190300006662782F636F72652E786D6C504B01021400140006080800CC70623B408A7D3B7C0000009D0000000B00000000000000000000000000B50400006662782F636E782E786D6C504B01021400140006080800CC70623B
310
449FB9BD290100001202000031000000000000000000000000005A0500006662782F36394639363044362D344446342D343946362D394244322D3234314243333846323333332F636F72652E786D6C504B01021400140006080800CC70623BAD7543B64E010000330300003000000000000000000000000000D20600006662
310
782F36394639363044362D344446342D343946362D394244322D3234314243333846323333332F636E782E786D6C504B01021400140006080800CC70623B8D05915C650500003B10000034000000000000000000000000006E0800006662782F36394639363044362D344446342D343946362D394244322D32343142433338
310
46323333332F6F626A656374732E786D6C504B01021400140006080000CC70623B0000000000000000000000003500000000000000000000000000250E00006662782F36394639363044362D344446342D343946362D394244322D3234314243333846323333332F76657274696365732E62696E504B010214001400060808
310
00CC70623BF270F13306000000040000003600000000000000000000000000780E00006662782F36394639363044362D344446342D343946362D394244322D3234314243333846323333332F747269616E676C65732E62696E504B01021400140006080000CC70623B00000000000000000000000037000000000000000000
310
00000000D20E00006662782F36394639363044362D344446342D343946362D394244322D3234314243333846323333332F617474726962757465732E62696E504B01021400140006080800CC70623B08DA0BD190000000410100003600000000000000000000000000270F00006662782F36394639363044362D344446342D
310
343946362D394244322D3234314243333846323333332F6469726563746F72792E786D6C504B01021400140006080800CC70623BCA768048FE000000A00100003B000000000000000000000000000B1000006662782F36394639363044362D344446342D343946362D394244322D3234314243333846323333332F7265736F
310
75726365732F636F72652E786D6C504B0506000000000E000E0080040000621100000000
  0
XRECORD
  5
176
102
{ACAD_REACTORS
330
173
102
}
330
173
100
AcDbXrecord
280
     1
270
     1
271
     1
  0
XRECORD
  5
177
102
{ACAD_REACTORS
330
173
102
}
330
173
100
AcDbXrecord
280
     1
270
     1
271
     1
  0
XRECORD
  5
29A
102
{ACAD_REACTORS
330
234
102
}
330
234
100
AcDbXrecord
280
     1
102
DISPLAYNAME
  1
Metric50
102
FLAGS
 90
        0
  0
CELLSTYLEMAP
  5
260
102
{ACAD_REACTORS
330
162
102
}
330
162
100
AcDbCellStyleMap
 90
        3
300
CELLSTYLE
  1
TABLEFORMAT_BEGIN
 90
        5
170
     1
 91
        0
 92
    32768
 62
   257
 93
        1
300
CONTENTFORMAT
  1
CONTENTFORMAT_BEGIN
 90
        0
 91
        0
 92
      512
 93
        0
300

 40
0.0
140
1.0
 94
        5
 62
     0
340
11
144
6.0
309
CONTENTFORMAT_END
171
     1
301
MARGIN
  1
CELLMARGIN_BEGIN
 40
1.5
 40
1.5
 40
1.5
 40
1.5
 40
4.5
 40
4.5
309
CELLMARGIN_END
 94
        6
 95
        1
302
GRIDFORMAT
  1
GRIDFORMAT_BEGIN
 90
        0
 91
        1
 62
     0
 92
       -2
340
14
 93
        0
 40
1.125
309
GRIDFORMAT_END
 95
        2
302
GRIDFORMAT
  1
GRIDFORMAT_BEGIN
 90
        0
 91
        1
 62
     0
 92
       -2
340
14
 93
        0
 40
1.125
309
GRIDFORMAT_END
 95
        4
302
GRIDFORMAT
  1
GRIDFORMAT_BEGIN
 90
        0
 91
        1
 62
     0
 92
       -2
340
14
 93
        0
 40
1.125
309
GRIDFORMAT_END
 95
        8
302
GRIDFORMAT
  1
GRIDFORMAT_BEGIN
 90
        0
 91
        1
 62
     0
 92
       -2
340
14
 93
        0
 40
1.125
309
GRIDFORMAT_END
 95
       16
302
GRIDFORMAT
  1
GRIDFORMAT_BEGIN
 90
        0
 91
        1
 62
     0
 92
       -2
340
14
 93
        0
 40
1.125
309
GRIDFORMAT_END
 95
       32
302
GRIDFORMAT
  1
GRIDFORMAT_BEGIN
 90
        0
 91
        1
 62
     0
 92
       -2
340
14
 93
        0
 40
1.125
309
GRIDFORMAT_END
309
TABLEFORMAT_END
  1
CELLSTYLE_BEGIN
 90
        1
 91
        1
300
_TITLE
309
CELLSTYLE_END
300
CELLSTYLE
  1
TABLEFORMAT_BEGIN
 90
        5
170
     1
 91
        0
 92
        0
 62
   257
 93
        1
300
CONTENTFORMAT
  1
CONTENTFORMAT_BEGIN
 90
        0
 91
        0
 92
      512
 93
        0
300

 40
0.0
140
1.0
 94
        5
 62
     0
340
11
144
4.5
309
CONTENTFORMAT_END
171
     1
301
MARGIN
  1
CELLMARGIN_BEGIN
 40
1.5
 40
1.5
 40
1.5
 40
1.5
 40
4.5
 40
4.5
309
CELLMARGIN_END
 94
        6
 95
        1
302
GRIDFORMAT
  1
GRIDFORMAT_BEGIN
 90
        0
 91
        1
 62
     0
 92
       -2
340
14
 93
        0
 40
1.125
309
GRIDFORMAT_END
 95
        2
302
GRIDFORMAT
  1
GRIDFORMAT_BEGIN
 90
        0
 91
        1
 62
     0
 92
       -2
340
14
 93
        0
 40
1.125
309
GRIDFORMAT_END
 95
        4
302
GRIDFORMAT
  1
GRIDFORMAT_BEGIN
 90
        0
 91
        1
 62
     0
 92
       -2
340
14
 93
        0
 40
1.125
309
GRIDFORMAT_END
 95
        8
302
GRIDFORMAT
  1
GRIDFORMAT_BEGIN
 90
        0
 91
        1
 62
     0
 92
       -2
340
14
 93
        0
 40
1.125
309
GRIDFORMAT_END
 95
       16
302
GRIDFORMAT
  1
GRIDFORMAT_BEGIN
 90
        0
 91
        1
 62
     0
 92
       -2
340
14
 93
        0
 40
1.125
309
GRIDFORMAT_END
 95
       32
302
GRIDFORMAT
  1
GRIDFORMAT_BEGIN
 90
        0
 91
        1
 62
     0
 92
       -2
340
14
 93
        0
 40
1.125
309
GRIDFORMAT_END
309
TABLEFORMAT_END
  1
CELLSTYLE_BEGIN
 90
        2
 91
        1
300
_HEADER
309
CELLSTYLE_END
300
CELLSTYLE
  1
TABLEFORMAT_BEGIN
 90
        5
170
     1
 91
        0
 92
        0
 62
   257
 93
        1
300
CONTENTFORMAT
  1
CONTENTFORMAT_BEGIN
 90
        0
 91
        0
 92
      512
 93
        0
300

 40
0.0
140
1.0
 94
        2
 62
     0
340
11
144
4.5
309
CONTENTFORMAT_END
171
     1
301
MARGIN
  1
CELLMARGIN_BEGIN
 40
1.5
 40
1.5
 40
1.5
 40
1.5
 40
4.5
 40
4.5
309
CELLMARGIN_END
 94
        6
 95
        1
302
GRIDFORMAT
  1
GRIDFORMAT_BEGIN
 90
        0
 91
        1
 62
     0
 92
       -2
340
14
 93
        0
 40
1.125
309
GRIDFORMAT_END
 95
        2
302
GRIDFORMAT
  1
GRIDFORMAT_BEGIN
 90
        0
 91
        1
 62
     0
 92
       -2
340
14
 93
        0
 40
1.125
309
GRIDFORMAT_END
 95
        4
302
GRIDFORMAT
  1
GRIDFORMAT_BEGIN
 90
        0
 91
        1
 62
     0
 92
       -2
340
14
 93
        0
 40
1.125
309
GRIDFORMAT_END
 95
        8
302
GRIDFORMAT
  1
GRIDFORMAT_BEGIN
 90
        0
 91
        1
 62
     0
 92
       -2
340
14
 93
        0
 40
1.125
309
GRIDFORMAT_END
 95
       16
302
GRIDFORMAT
  1
GRIDFORMAT_BEGIN
 90
        0
 91
        1
 62
     0
 92
       -2
340
14
 93
        0
 40
1.125
309
GRIDFORMAT_END
 95
       32
302
GRIDFORMAT
  1
GRIDFORMAT_BEGIN
 90
        0
 91
        1
 62
     0
 92
       -2
340
14
 93
        0
 40
1.125
309
GRIDFORMAT_END
309
TABLEFORMAT_END
  1
CELLSTYLE_BEGIN
 90
        3
 91
        2
300
_DATA
309
CELLSTYLE_END
  0
XRECORD
  5
275
102
{ACAD_REACTORS
330
274
102
}
330
274
100
AcDbXrecord
280
     1
102
RTVSPost2010Prop28
280
     1
102
RTVSPost2010PropOp28
 70
     1
102
RTVSPost2010Prop29
280
     1
102
RTVSPost2010PropOp29
 70
     1
102
RTVSPost2010Prop30
280
     0
102
RTVSPost2010PropOp30
 70
     1
102
RTVSPost2010Prop31
280
     0
102
RTVSPost2010PropOp31
 70
     1
102
RTVSPost2010Prop32
280
     0
102
RTVSPost2010PropOp32
 70
     1
102
RTVSPost2010Prop33
280
     0
102
RTVSPost2010PropOp33
 70
     1
102
RTVSPost2010Prop34
280
     0
102
RTVSPost2010PropOp34
 70
     1
102
RTVSPost2010Prop35
280
     0
102
RTVSPost2010PropOp35
 70
     1
102
RTVSPost2010Prop36
280
     0
102
RTVSPost2010PropOp36
 70
     1
102
RTVSPost2010Prop37
 90
       50
102
RTVSPost2010PropOp37
 70
     1
102
RTVSPost2010Prop38
140
0.0
102
RTVSPost2010PropOp38
 70
     1
102
RTVSPost2010Prop39
140
1.0
102
RTVSPost2010PropOp39
 70
     1
102
RTVSPost2010Prop40
 90
        0
102
RTVSPost2010PropOp40
 70
     1
102
RTVSPost2010Prop41ColorIndex
 90
       18
102
RTVSPost2010Prop41ColorRGB
 90
        0
102
RTVSPost2010PropOp41
 70
     1
102
RTVSPost2010Prop42
 90
       50
102
RTVSPost2010PropOp42
 70
     1
102
RTVSPost2010Prop43
 90
        3
102
RTVSPost2010PropOp43
 70
     1
102
RTVSPost2010Prop44ColorIndex
 90
        5
102
RTVSPost2010Prop44ColorRGB
 90
      255
102
RTVSPost2010PropOp44
 70
     1
102
RTVSPost2010Prop45
280
     0
102
RTVSPost2010PropOp45
 70
     1
102
RTVSPost2010Prop46
 90
       50
102
RTVSPost2010PropOp46
 70
     1
102
RTVSPost2010Prop47
 90
       50
102
RTVSPost2010PropOp47
 70
     1
102
RTVSPost2010Prop48
 90
       50
102
RTVSPost2010PropOp48
 70
     1
102
RTVSPost2010Prop49
280
     0
102
RTVSPost2010PropOp49
 70
     1
102
RTVSPost2010Prop50
 90
       50
102
RTVSPost2010PropOp50
 70
     1
102
RTVSPost2010Prop51ColorIndex
 90
      256
102
RTVSPost2010Prop51ColorRGB
 90
-16777216
102
RTVSPost2010PropOp51
 70
     0
102
RTVSPost2010Prop52
140
1.0
102
RTVSPost2010PropOp52
 70
     0
102
RTVSPost2010Prop53
 90
        2
102
RTVSPost2010PropOp53
 70
     1
102
RTVSPost2010Prop54
  1
strokes_ogs.tif
102
RTVSPost2010PropOp54
 70
     1
102
RTVSPost2010Prop55
280
     0
102
RTVSPost2010PropOp55
 70
     1
102
RTVSPost2010Prop56
140
1.0
102
RTVSPost2010PropOp56
 70
     1
102
RTVSPost2010Prop57
140
1.0
102
RTVSPost2010PropOp57
 70
     1
102
RTVSPropertyOp0
 70
     1
102
RTVSPropertyOp1
 70
     1
102
RTVSPropertyOp2
 70
     1
102
RTVSPropertyOp3
 70
     1
102
RTVSPropertyOp4
 70
     1
102
RTVSPropertyOp5
 70
     1
102
RTVSPropertyOp6
 70
     1
102
RTVSPropertyOp7
 70
     1
102
RTVSPropertyOp8
 70
     1
102
RTVSPropertyOp9
 70
     1
102
RTVSPropertyOp10
 70
     1
102
RTVSPropertyOp11
 70
     1
102
RTVSPropertyOp12
 70
     1
102
RTVSPropertyOp13
 70
     1
102
RTVSPropertyOp14
 70
     1
102
RTVSPropertyOp15
 70
     1
102
RTVSPropertyOp16
 70
     1
102
RTVSPropertyOp17
 70
     1
102
RTVSPropertyOp18
 70
     1
102
RTVSPropertyOp19
 70
     1
102
RTVSPropertyOp20
 70
     1
102
RTVSPropertyOp21
 70
     1
102
RTVSPropertyOp22
 70
     1
102
RTVSPropertyOp23
 70
     1
102
RTVSPropertyOp24
 70
     1
102
RTVSPropertyOp25
 70
     1
102
RTVSPropertyOp26
 70
     1
102
RTVSPropertyOp27
 70
     1
102
RTVSPropertyOp28
 70
     1
102
RTVSPropertyOp29
 70
     1
102
RTVSPropertyOp30
 70
     1
102
RTVSPropertyOp31
 70
     1
102
RTVSPropertyOp32
 70
     1
102
RTVSPropertyOp33
 70
     1
102
RTVSPropertyOp34
 70
     1
102
RTVSPropertyOp35
 70
     1
102
RTVSPropertyOp36
 70
     1
102
RTVSPropertyOp37
 70
     1
102
RTVSPropertyOp38
 70
     1
102
RTVSPropertyOp39
 70
     1
102
RTVSPropertyOp40
 70
     1
102
RTVSPropertyOp41
 70
     1
102
RTVSPropertyOp42
 70
     1
102
RTVSPropertyOp43
 70
     1
102
RTVSPropertyOp44
 70
     1
102
RTVSPropertyOp45
 70
     1
102
RTVSPropertyOp46
 70
     1
102
RTVSPropertyOp47
 70
     1
102
RTVSPropertyOp48
 70
     1
102
RTVSPropertyOp49
 70
     1
102
RTVSPropertyOp50
 70
     1
102
RTVSPropertyOp51
 70
     0
102
RTVSPropertyOp52
 70
     0
102
RTVSPropertyOp53
 70
     1
102
RTVSPropertyOp54
 70
     1
102
RTVSPropertyOp55
 70
     1
102
RTVSPropertyOp56
 70
     1
102
RTVSPropertyOp57
 70
     1
102
RTVSPropertyOp58
 70
     1
102
RTVSPropertyOp59
 70
     1
102
RTVSPropertyOp60
 70
     1
102
RTVSPropertyOp61
 70
     1
102
RTVSPropertyOp62
 70
     1
  0
XRECORD
  5
273
102
{ACAD_REACTORS
330
272
102
}
330
272
100
AcDbXrecord
280
     1
102
RTVSPost2010Prop28
280
     0
102
RTVSPost2010PropOp28
 70
     1
102
RTVSPost2010Prop29
280
     1
102
RTVSPost2010PropOp29
 70
     1
102
RTVSPost2010Prop30
280
     1
102
RTVSPost2010PropOp30
 70
     1
102
RTVSPost2010Prop31
280
     0
102
RTVSPost2010PropOp31
 70
     1
102
RTVSPost2010Prop32
280
     0
102
RTVSPost2010PropOp32
 70
     1
102
RTVSPost2010Prop33
280
     0
102
RTVSPost2010PropOp33
 70
     1
102
RTVSPost2010Prop34
280
     0
102
RTVSPost2010PropOp34
 70
     1
102
RTVSPost2010Prop35
280
     0
102
RTVSPost2010PropOp35
 70
     1
102
RTVSPost2010Prop36
280
     0
102
RTVSPost2010PropOp36
 70
     1
102
RTVSPost2010Prop37
 90
       50
102
RTVSPost2010PropOp37
 70
     1
102
RTVSPost2010Prop38
140
0.0
102
RTVSPost2010PropOp38
 70
     1
102
RTVSPost2010Prop39
140
1.0
102
RTVSPost2010PropOp39
 70
     1
102
RTVSPost2010Prop40
 90
        0
102
RTVSPost2010PropOp40
 70
     1
102
RTVSPost2010Prop41ColorIndex
 90
       18
102
RTVSPost2010Prop41ColorRGB
 90
        0
102
RTVSPost2010PropOp41
 70
     1
102
RTVSPost2010Prop42
 90
       50
102
RTVSPost2010PropOp42
 70
     1
102
RTVSPost2010Prop43
 90
        3
102
RTVSPost2010PropOp43
 70
     1
102
RTVSPost2010Prop44ColorIndex
 90
        5
102
RTVSPost2010Prop44ColorRGB
 90
      255
102
RTVSPost2010PropOp44
 70
     1
102
RTVSPost2010Prop45
280
     0
102
RTVSPost2010PropOp45
 70
     1
102
RTVSPost2010Prop46
 90
       50
102
RTVSPost2010PropOp46
 70
     1
102
RTVSPost2010Prop47
 90
       50
102
RTVSPost2010PropOp47
 70
     1
102
RTVSPost2010Prop48
 90
       50
102
RTVSPost2010PropOp48
 70
     1
102
RTVSPost2010Prop49
280
     0
102
RTVSPost2010PropOp49
 70
     1
102
RTVSPost2010Prop50
 90
       50
102
RTVSPost2010PropOp50
 70
     1
102
RTVSPost2010Prop51ColorIndex
 90
      256
102
RTVSPost2010Prop51ColorRGB
 90
-16777216
102
RTVSPost2010PropOp51
 70
     0
102
RTVSPost2010Prop52
140
1.0
102
RTVSPost2010PropOp52
 70
     0
102
RTVSPost2010Prop53
 90
        2
102
RTVSPost2010PropOp53
 70
     1
102
RTVSPost2010Prop54
  1
strokes_ogs.tif
102
RTVSPost2010PropOp54
 70
     1
102
RTVSPost2010Prop55
280
     0
102
RTVSPost2010PropOp55
 70
     1
102
RTVSPost2010Prop56
140
1.0
102
RTVSPost2010PropOp56
 70
     1
102
RTVSPost2010Prop57
140
1.0
102
RTVSPost2010PropOp57
 70
     1
102
RTVSPropertyOp0
 70
     1
102
RTVSPropertyOp1
 70
     1
102
RTVSPropertyOp2
 70
     1
102
RTVSPropertyOp3
 70
     1
102
RTVSPropertyOp4
 70
     1
102
RTVSPropertyOp5
 70
     1
102
RTVSPropertyOp6
 70
     1
102
RTVSPropertyOp7
 70
     1
102
RTVSPropertyOp8
 70
     1
102
RTVSPropertyOp9
 70
     1
102
RTVSPropertyOp10
 70
     1
102
RTVSPropertyOp11
 70
     1
102
RTVSPropertyOp12
 70
     1
102
RTVSPropertyOp13
 70
     1
102
RTVSPropertyOp14
 70
     1
102
RTVSPropertyOp15
 70
     1
102
RTVSPropertyOp16
 70
     1
102
RTVSPropertyOp17
 70
     1
102
RTVSPropertyOp18
 70
     1
102
RTVSPropertyOp19
 70
     1
102
RTVSPropertyOp20
 70
     1
102
RTVSPropertyOp21
 70
     1
102
RTVSPropertyOp22
 70
     1
102
RTVSPropertyOp23
 70
     1
102
RTVSPropertyOp24
 70
     1
102
RTVSPropertyOp25
 70
     1
102
RTVSPropertyOp26
 70
     1
102
RTVSPropertyOp27
 70
     1
102
RTVSPropertyOp28
 70
     1
102
RTVSPropertyOp29
 70
     1
102
RTVSPropertyOp30
 70
     1
102
RTVSPropertyOp31
 70
     1
102
RTVSPropertyOp32
 70
     1
102
RTVSPropertyOp33
 70
     1
102
RTVSPropertyOp34
 70
     1
102
RTVSPropertyOp35
 70
     1
102
RTVSPropertyOp36
 70
     1
102
RTVSPropertyOp37
 70
     1
102
RTVSPropertyOp38
 70
     1
102
RTVSPropertyOp39
 70
     1
102
RTVSPropertyOp40
 70
     1
102
RTVSPropertyOp41
 70
     1
102
RTVSPropertyOp42
 70
     1
102
RTVSPropertyOp43
 70
     1
102
RTVSPropertyOp44
 70
     1
102
RTVSPropertyOp45
 70
     1
102
RTVSPropertyOp46
 70
     1
102
RTVSPropertyOp47
 70
     1
102
RTVSPropertyOp48
 70
     1
102
RTVSPropertyOp49
 70
     1
102
RTVSPropertyOp50
 70
     1
102
RTVSPropertyOp51
 70
     0
102
RTVSPropertyOp52
 70
     0
102
RTVSPropertyOp53
 70
     1
102
RTVSPropertyOp54
 70
     1
102
RTVSPropertyOp55
 70
     1
102
RTVSPropertyOp56
 70
     1
102
RTVSPropertyOp57
 70
     1
102
RTVSPropertyOp58
 70
     1
102
RTVSPropertyOp59
 70
     1
102
RTVSPropertyOp60
 70
     1
102
RTVSPropertyOp61
 70
     1
102
RTVSPropertyOp62
 70
     1
  0
XRECORD
  5
281
102
{ACAD_REACTORS
330
280
102
}
330
280
100
AcDbXrecord
280
     1
102
RTVSPost2010Prop28
280
     0
102
RTVSPost2010PropOp28
 70
     1
102
RTVSPost2010Prop29
280
     1
102
RTVSPost2010PropOp29
 70
     1
102
RTVSPost2010Prop30
280
     1
102
RTVSPost2010PropOp30
 70
     1
102
RTVSPost2010Prop31
280
     0
102
RTVSPost2010PropOp31
 70
     1
102
RTVSPost2010Prop32
280
     0
102
RTVSPost2010PropOp32
 70
     1
102
RTVSPost2010Prop33
280
     0
102
RTVSPost2010PropOp33
 70
     1
102
RTVSPost2010Prop34
280
     0
102
RTVSPost2010PropOp34
 70
     1
102
RTVSPost2010Prop35
280
     0
102
RTVSPost2010PropOp35
 70
     1
102
RTVSPost2010Prop36
280
     0
102
RTVSPost2010PropOp36
 70
     1
102
RTVSPost2010Prop37
 90
       50
102
RTVSPost2010PropOp37
 70
     1
102
RTVSPost2010Prop38
140
0.0
102
RTVSPost2010PropOp38
 70
     1
102
RTVSPost2010Prop39
140
1.0
102
RTVSPost2010PropOp39
 70
     1
102
RTVSPost2010Prop40
 90
        0
102
RTVSPost2010PropOp40
 70
     1
102
RTVSPost2010Prop41ColorIndex
 90
       18
102
RTVSPost2010Prop41ColorRGB
 90
        0
102
RTVSPost2010PropOp41
 70
     1
102
RTVSPost2010Prop42
 90
       50
102
RTVSPost2010PropOp42
 70
     1
102
RTVSPost2010Prop43
 90
        3
102
RTVSPost2010PropOp43
 70
     1
102
RTVSPost2010Prop44ColorIndex
 90
        5
102
RTVSPost2010Prop44ColorRGB
 90
      255
102
RTVSPost2010PropOp44
 70
     1
102
RTVSPost2010Prop45
280
     0
102
RTVSPost2010PropOp45
 70
     1
102
RTVSPost2010Prop46
 90
       50
102
RTVSPost2010PropOp46
 70
     1
102
RTVSPost2010Prop47
 90
       50
102
RTVSPost2010PropOp47
 70
     1
102
RTVSPost2010Prop48
 90
       50
102
RTVSPost2010PropOp48
 70
     1
102
RTVSPost2010Prop49
280
     0
102
RTVSPost2010PropOp49
 70
     1
102
RTVSPost2010Prop50
 90
       50
102
RTVSPost2010PropOp50
 70
     1
102
RTVSPost2010Prop51ColorIndex
 90
      256
102
RTVSPost2010Prop51ColorRGB
 90
-16777216
102
RTVSPost2010PropOp51
 70
     0
102
RTVSPost2010Prop52
140
1.0
102
RTVSPost2010PropOp52
 70
     0
102
RTVSPost2010Prop53
 90
        2
102
RTVSPost2010PropOp53
 70
     1
102
RTVSPost2010Prop54
  1
strokes_ogs.tif
102
RTVSPost2010PropOp54
 70
     1
102
RTVSPost2010Prop55
280
     0
102
RTVSPost2010PropOp55
 70
     1
102
RTVSPost2010Prop56
140
1.0
102
RTVSPost2010PropOp56
 70
     1
102
RTVSPost2010Prop57
140
1.0
102
RTVSPost2010PropOp57
 70
     1
102
RTVSPropertyOp0
 70
     1
102
RTVSPropertyOp1
 70
     1
102
RTVSPropertyOp2
 70
     1
102
RTVSPropertyOp3
 70
     1
102
RTVSPropertyOp4
 70
     1
102
RTVSPropertyOp5
 70
     1
102
RTVSPropertyOp6
 70
     1
102
RTVSPropertyOp7
 70
     1
102
RTVSPropertyOp8
 70
     1
102
RTVSPropertyOp9
 70
     1
102
RTVSPropertyOp10
 70
     1
102
RTVSPropertyOp11
 70
     1
102
RTVSPropertyOp12
 70
     1
102
RTVSPropertyOp13
 70
     1
102
RTVSPropertyOp14
 70
     1
102
RTVSPropertyOp15
 70
     1
102
RTVSPropertyOp16
 70
     1
102
RTVSPropertyOp17
 70
     1
102
RTVSPropertyOp18
 70
     1
102
RTVSPropertyOp19
 70
     1
102
RTVSPropertyOp20
 70
     1
102
RTVSPropertyOp21
 70
     1
102
RTVSPropertyOp22
 70
     1
102
RTVSPropertyOp23
 70
     1
102
RTVSPropertyOp24
 70
     1
102
RTVSPropertyOp25
 70
     1
102
RTVSPropertyOp26
 70
     1
102
RTVSPropertyOp27
 70
     1
102
RTVSPropertyOp28
 70
     1
102
RTVSPropertyOp29
 70
     1
102
RTVSPropertyOp30
 70
     1
102
RTVSPropertyOp31
 70
     1
102
RTVSPropertyOp32
 70
     1
102
RTVSPropertyOp33
 70
     1
102
RTVSPropertyOp34
 70
     1
102
RTVSPropertyOp35
 70
     1
102
RTVSPropertyOp36
 70
     1
102
RTVSPropertyOp37
 70
     1
102
RTVSPropertyOp38
 70
     1
102
RTVSPropertyOp39
 70
     1
102
RTVSPropertyOp40
 70
     1
102
RTVSPropertyOp41
 70
     1
102
RTVSPropertyOp42
 70
     1
102
RTVSPropertyOp43
 70
     1
102
RTVSPropertyOp44
 70
     1
102
RTVSPropertyOp45
 70
     1
102
RTVSPropertyOp46
 70
     1
102
RTVSPropertyOp47
 70
     1
102
RTVSPropertyOp48
 70
     1
102
RTVSPropertyOp49
 70
     1
102
RTVSPropertyOp50
 70
     1
102
RTVSPropertyOp51
 70
     0
102
RTVSPropertyOp52
 70
     0
102
RTVSPropertyOp53
 70
     1
102
RTVSPropertyOp54
 70
     1
102
RTVSPropertyOp55
 70
     1
102
RTVSPropertyOp56
 70
     1
102
RTVSPropertyOp57
 70
     1
102
RTVSPropertyOp58
 70
     1
102
RTVSPropertyOp59
 70
     1
102
RTVSPropertyOp60
 70
     1
102
RTVSPropertyOp61
 70
     1
102
RTVSPropertyOp62
 70
     1
  0
XRECORD
  5
289
102
{ACAD_REACTORS
330
288
102
}
330
288
100
AcDbXrecord
280
     1
102
RTVSPost2010Prop28
280
     0
102
RTVSPost2010PropOp28
 70
     1
102
RTVSPost2010Prop29
280
     1
102
RTVSPost2010PropOp29
 70
     1
102
RTVSPost2010Prop30
280
     1
102
RTVSPost2010PropOp30
 70
     1
102
RTVSPost2010Prop31
280
     0
102
RTVSPost2010PropOp31
 70
     1
102
RTVSPost2010Prop32
280
     0
102
RTVSPost2010PropOp32
 70
     1
102
RTVSPost2010Prop33
280
     0
102
RTVSPost2010PropOp33
 70
     1
102
RTVSPost2010Prop34
280
     0
102
RTVSPost2010PropOp34
 70
     1
102
RTVSPost2010Prop35
280
     0
102
RTVSPost2010PropOp35
 70
     1
102
RTVSPost2010Prop36
280
     0
102
RTVSPost2010PropOp36
 70
     1
102
RTVSPost2010Prop37
 90
       50
102
RTVSPost2010PropOp37
 70
     1
102
RTVSPost2010Prop38
140
0.0
102
RTVSPost2010PropOp38
 70
     1
102
RTVSPost2010Prop39
140
1.0
102
RTVSPost2010PropOp39
 70
     1
102
RTVSPost2010Prop40
 90
        0
102
RTVSPost2010PropOp40
 70
     1
102
RTVSPost2010Prop41ColorIndex
 90
       18
102
RTVSPost2010Prop41ColorRGB
 90
        0
102
RTVSPost2010PropOp41
 70
     1
102
RTVSPost2010Prop42
 90
       50
102
RTVSPost2010PropOp42
 70
     1
102
RTVSPost2010Prop43
 90
        3
102
RTVSPost2010PropOp43
 70
     1
102
RTVSPost2010Prop44ColorIndex
 90
        5
102
RTVSPost2010Prop44ColorRGB
 90
      255
102
RTVSPost2010PropOp44
 70
     1
102
RTVSPost2010Prop45
280
     0
102
RTVSPost2010PropOp45
 70
     1
102
RTVSPost2010Prop46
 90
       50
102
RTVSPost2010PropOp46
 70
     1
102
RTVSPost2010Prop47
 90
       50
102
RTVSPost2010PropOp47
 70
     1
102
RTVSPost2010Prop48
 90
       50
102
RTVSPost2010PropOp48
 70
     1
102
RTVSPost2010Prop49
280
     0
102
RTVSPost2010PropOp49
 70
     1
102
RTVSPost2010Prop50
 90
       50
102
RTVSPost2010PropOp50
 70
     1
102
RTVSPost2010Prop51ColorIndex
 90
      256
102
RTVSPost2010Prop51ColorRGB
 90
-16777216
102
RTVSPost2010PropOp51
 70
     0
102
RTVSPost2010Prop52
140
1.0
102
RTVSPost2010PropOp52
 70
     0
102
RTVSPost2010Prop53
 90
        2
102
RTVSPost2010PropOp53
 70
     1
102
RTVSPost2010Prop54
  1
strokes_ogs.tif
102
RTVSPost2010PropOp54
 70
     1
102
RTVSPost2010Prop55
280
     0
102
RTVSPost2010PropOp55
 70
     1
102
RTVSPost2010Prop56
140
1.0
102
RTVSPost2010PropOp56
 70
     1
102
RTVSPost2010Prop57
140
1.0
102
RTVSPost2010PropOp57
 70
     1
102
RTVSPropertyOp0
 70
     1
102
RTVSPropertyOp1
 70
     1
102
RTVSPropertyOp2
 70
     1
102
RTVSPropertyOp3
 70
     1
102
RTVSPropertyOp4
 70
     1
102
RTVSPropertyOp5
 70
     1
102
RTVSPropertyOp6
 70
     1
102
RTVSPropertyOp7
 70
     1
102
RTVSPropertyOp8
 70
     1
102
RTVSPropertyOp9
 70
     1
102
RTVSPropertyOp10
 70
     1
102
RTVSPropertyOp11
 70
     1
102
RTVSPropertyOp12
 70
     1
102
RTVSPropertyOp13
 70
     1
102
RTVSPropertyOp14
 70
     1
102
RTVSPropertyOp15
 70
     1
102
RTVSPropertyOp16
 70
     1
102
RTVSPropertyOp17
 70
     1
102
RTVSPropertyOp18
 70
     1
102
RTVSPropertyOp19
 70
     1
102
RTVSPropertyOp20
 70
     1
102
RTVSPropertyOp21
 70
     1
102
RTVSPropertyOp22
 70
     1
102
RTVSPropertyOp23
 70
     1
102
RTVSPropertyOp24
 70
     1
102
RTVSPropertyOp25
 70
     1
102
RTVSPropertyOp26
 70
     1
102
RTVSPropertyOp27
 70
     1
102
RTVSPropertyOp28
 70
     1
102
RTVSPropertyOp29
 70
     1
102
RTVSPropertyOp30
 70
     1
102
RTVSPropertyOp31
 70
     1
102
RTVSPropertyOp32
 70
     1
102
RTVSPropertyOp33
 70
     1
102
RTVSPropertyOp34
 70
     1
102
RTVSPropertyOp35
 70
     1
102
RTVSPropertyOp36
 70
     1
102
RTVSPropertyOp37
 70
     1
102
RTVSPropertyOp38
 70
     1
102
RTVSPropertyOp39
 70
     1
102
RTVSPropertyOp40
 70
     1
102
RTVSPropertyOp41
 70
     1
102
RTVSPropertyOp42
 70
     1
102
RTVSPropertyOp43
 70
     1
102
RTVSPropertyOp44
 70
     1
102
RTVSPropertyOp45
 70
     1
102
RTVSPropertyOp46
 70
     1
102
RTVSPropertyOp47
 70
     1
102
RTVSPropertyOp48
 70
     1
102
RTVSPropertyOp49
 70
     1
102
RTVSPropertyOp50
 70
     1
102
RTVSPropertyOp51
 70
     0
102
RTVSPropertyOp52
 70
     0
102
RTVSPropertyOp53
 70
     1
102
RTVSPropertyOp54
 70
     1
102
RTVSPropertyOp55
 70
     1
102
RTVSPropertyOp56
 70
     1
102
RTVSPropertyOp57
 70
     1
102
RTVSPropertyOp58
 70
     1
102
RTVSPropertyOp59
 70
     1
102
RTVSPropertyOp60
 70
     1
102
RTVSPropertyOp61
 70
     1
102
RTVSPropertyOp62
 70
     1
  0
XRECORD
  5
27B
102
{ACAD_REACTORS
330
27A
102
}
330
27A
100
AcDbXrecord
280
     1
102
RTVSPost2010Prop28
280
     0
102
RTVSPost2010PropOp28
 70
     1
102
RTVSPost2010Prop29
280
     1
102
RTVSPost2010PropOp29
 70
     1
102
RTVSPost2010Prop30
280
     1
102
RTVSPost2010PropOp30
 70
     1
102
RTVSPost2010Prop31
280
     0
102
RTVSPost2010PropOp31
 70
     1
102
RTVSPost2010Prop32
280
     0
102
RTVSPost2010PropOp32
 70
     1
102
RTVSPost2010Prop33
280
     0
102
RTVSPost2010PropOp33
 70
     1
102
RTVSPost2010Prop34
280
     0
102
RTVSPost2010PropOp34
 70
     1
102
RTVSPost2010Prop35
280
     0
102
RTVSPost2010PropOp35
 70
     1
102
RTVSPost2010Prop36
280
     0
102
RTVSPost2010PropOp36
 70
     1
102
RTVSPost2010Prop37
 90
       50
102
RTVSPost2010PropOp37
 70
     1
102
RTVSPost2010Prop38
140
0.0
102
RTVSPost2010PropOp38
 70
     1
102
RTVSPost2010Prop39
140
1.0
102
RTVSPost2010PropOp39
 70
     1
102
RTVSPost2010Prop40
 90
        0
102
RTVSPost2010PropOp40
 70
     1
102
RTVSPost2010Prop41ColorIndex
 90
       18
102
RTVSPost2010Prop41ColorRGB
 90
        0
102
RTVSPost2010PropOp41
 70
     1
102
RTVSPost2010Prop42
 90
       50
102
RTVSPost2010PropOp42
 70
     1
102
RTVSPost2010Prop43
 90
        3
102
RTVSPost2010PropOp43
 70
     1
102
RTVSPost2010Prop44ColorIndex
 90
        5
102
RTVSPost2010Prop44ColorRGB
 90
      255
102
RTVSPost2010PropOp44
 70
     1
102
RTVSPost2010Prop45
280
     0
102
RTVSPost2010PropOp45
 70
     1
102
RTVSPost2010Prop46
 90
       50
102
RTVSPost2010PropOp46
 70
     1
102
RTVSPost2010Prop47
 90
       50
102
RTVSPost2010PropOp47
 70
     1
102
RTVSPost2010Prop48
 90
       50
102
RTVSPost2010PropOp48
 70
     1
102
RTVSPost2010Prop49
280
     0
102
RTVSPost2010PropOp49
 70
     1
102
RTVSPost2010Prop50
 90
       50
102
RTVSPost2010PropOp50
 70
     1
102
RTVSPost2010Prop51ColorIndex
 90
      256
102
RTVSPost2010Prop51ColorRGB
 90
-16777216
102
RTVSPost2010PropOp51
 70
     0
102
RTVSPost2010Prop52
140
1.0
102
RTVSPost2010PropOp52
 70
     0
102
RTVSPost2010Prop53
 90
        2
102
RTVSPost2010PropOp53
 70
     1
102
RTVSPost2010Prop54
  1
strokes_ogs.tif
102
RTVSPost2010PropOp54
 70
     1
102
RTVSPost2010Prop55
280
     0
102
RTVSPost2010PropOp55
 70
     1
102
RTVSPost2010Prop56
140
1.0
102
RTVSPost2010PropOp56
 70
     1
102
RTVSPost2010Prop57
140
1.0
102
RTVSPost2010PropOp57
 70
     1
102
RTVSPropertyOp0
 70
     1
102
RTVSPropertyOp1
 70
     1
102
RTVSPropertyOp2
 70
     1
102
RTVSPropertyOp3
 70
     1
102
RTVSPropertyOp4
 70
     1
102
RTVSPropertyOp5
 70
     1
102
RTVSPropertyOp6
 70
     1
102
RTVSPropertyOp7
 70
     1
102
RTVSPropertyOp8
 70
     1
102
RTVSPropertyOp9
 70
     1
102
RTVSPropertyOp10
 70
     1
102
RTVSPropertyOp11
 70
     1
102
RTVSPropertyOp12
 70
     1
102
RTVSPropertyOp13
 70
     1
102
RTVSPropertyOp14
 70
     1
102
RTVSPropertyOp15
 70
     1
102
RTVSPropertyOp16
 70
     1
102
RTVSPropertyOp17
 70
     1
102
RTVSPropertyOp18
 70
     1
102
RTVSPropertyOp19
 70
     1
102
RTVSPropertyOp20
 70
     1
102
RTVSPropertyOp21
 70
     1
102
RTVSPropertyOp22
 70
     1
102
RTVSPropertyOp23
 70
     1
102
RTVSPropertyOp24
 70
     1
102
RTVSPropertyOp25
 70
     1
102
RTVSPropertyOp26
 70
     1
102
RTVSPropertyOp27
 70
     1
102
RTVSPropertyOp28
 70
     1
102
RTVSPropertyOp29
 70
     1
102
RTVSPropertyOp30
 70
     1
102
RTVSPropertyOp31
 70
     1
102
RTVSPropertyOp32
 70
     1
102
RTVSPropertyOp33
 70
     1
102
RTVSPropertyOp34
 70
     1
102
RTVSPropertyOp35
 70
     1
102
RTVSPropertyOp36
 70
     1
102
RTVSPropertyOp37
 70
     1
102
RTVSPropertyOp38
 70
     1
102
RTVSPropertyOp39
 70
     1
102
RTVSPropertyOp40
 70
     1
102
RTVSPropertyOp41
 70
     1
102
RTVSPropertyOp42
 70
     1
102
RTVSPropertyOp43
 70
     1
102
RTVSPropertyOp44
 70
     1
102
RTVSPropertyOp45
 70
     1
102
RTVSPropertyOp46
 70
     1
102
RTVSPropertyOp47
 70
     1
102
RTVSPropertyOp48
 70
     1
102
RTVSPropertyOp49
 70
     1
102
RTVSPropertyOp50
 70
     1
102
RTVSPropertyOp51
 70
     0
102
RTVSPropertyOp52
 70
     0
102
RTVSPropertyOp53
 70
     1
102
RTVSPropertyOp54
 70
     1
102
RTVSPropertyOp55
 70
     1
102
RTVSPropertyOp56
 70
     1
102
RTVSPropertyOp57
 70
     1
102
RTVSPropertyOp58
 70
     1
102
RTVSPropertyOp59
 70
     1
102
RTVSPropertyOp60
 70
     1
102
RTVSPropertyOp61
 70
     1
102
RTVSPropertyOp62
 70
     1
  0
XRECORD
  5
27F
102
{ACAD_REACTORS
330
27E
102
}
330
27E
100
AcDbXrecord
280
     1
102
RTVSPost2010Prop28
280
     0
102
RTVSPost2010PropOp28
 70
     1
102
RTVSPost2010Prop29
280
     1
102
RTVSPost2010PropOp29
 70
     1
102
RTVSPost2010Prop30
280
     1
102
RTVSPost2010PropOp30
 70
     1
102
RTVSPost2010Prop31
280
     0
102
RTVSPost2010PropOp31
 70
     1
102
RTVSPost2010Prop32
280
     0
102
RTVSPost2010PropOp32
 70
     1
102
RTVSPost2010Prop33
280
     0
102
RTVSPost2010PropOp33
 70
     1
102
RTVSPost2010Prop34
280
     0
102
RTVSPost2010PropOp34
 70
     1
102
RTVSPost2010Prop35
280
     0
102
RTVSPost2010PropOp35
 70
     1
102
RTVSPost2010Prop36
280
     0
102
RTVSPost2010PropOp36
 70
     1
102
RTVSPost2010Prop37
 90
       50
102
RTVSPost2010PropOp37
 70
     1
102
RTVSPost2010Prop38
140
0.0
102
RTVSPost2010PropOp38
 70
     1
102
RTVSPost2010Prop39
140
1.0
102
RTVSPost2010PropOp39
 70
     1
102
RTVSPost2010Prop40
 90
        0
102
RTVSPost2010PropOp40
 70
     1
102
RTVSPost2010Prop41ColorIndex
 90
       18
102
RTVSPost2010Prop41ColorRGB
 90
        0
102
RTVSPost2010PropOp41
 70
     1
102
RTVSPost2010Prop42
 90
       50
102
RTVSPost2010PropOp42
 70
     1
102
RTVSPost2010Prop43
 90
        3
102
RTVSPost2010PropOp43
 70
     1
102
RTVSPost2010Prop44ColorIndex
 90
        5
102
RTVSPost2010Prop44ColorRGB
 90
      255
102
RTVSPost2010PropOp44
 70
     1
102
RTVSPost2010Prop45
280
     0
102
RTVSPost2010PropOp45
 70
     1
102
RTVSPost2010Prop46
 90
       50
102
RTVSPost2010PropOp46
 70
     1
102
RTVSPost2010Prop47
 90
       50
102
RTVSPost2010PropOp47
 70
     1
102
RTVSPost2010Prop48
 90
       50
102
RTVSPost2010PropOp48
 70
     1
102
RTVSPost2010Prop49
280
     0
102
RTVSPost2010PropOp49
 70
     1
102
RTVSPost2010Prop50
 90
       50
102
RTVSPost2010PropOp50
 70
     1
102
RTVSPost2010Prop51ColorIndex
 90
      256
102
RTVSPost2010Prop51ColorRGB
 90
-16777216
102
RTVSPost2010PropOp51
 70
     0
102
RTVSPost2010Prop52
140
1.0
102
RTVSPost2010PropOp52
 70
     0
102
RTVSPost2010Prop53
 90
        2
102
RTVSPost2010PropOp53
 70
     1
102
RTVSPost2010Prop54
  1
strokes_ogs.tif
102
RTVSPost2010PropOp54
 70
     1
102
RTVSPost2010Prop55
280
     0
102
RTVSPost2010PropOp55
 70
     1
102
RTVSPost2010Prop56
140
1.0
102
RTVSPost2010PropOp56
 70
     1
102
RTVSPost2010Prop57
140
1.0
102
RTVSPost2010PropOp57
 70
     1
102
RTVSPropertyOp0
 70
     1
102
RTVSPropertyOp1
 70
     1
102
RTVSPropertyOp2
 70
     1
102
RTVSPropertyOp3
 70
     1
102
RTVSPropertyOp4
 70
     1
102
RTVSPropertyOp5
 70
     1
102
RTVSPropertyOp6
 70
     1
102
RTVSPropertyOp7
 70
     1
102
RTVSPropertyOp8
 70
     1
102
RTVSPropertyOp9
 70
     1
102
RTVSPropertyOp10
 70
     1
102
RTVSPropertyOp11
 70
     1
102
RTVSPropertyOp12
 70
     1
102
RTVSPropertyOp13
 70
     1
102
RTVSPropertyOp14
 70
     1
102
RTVSPropertyOp15
 70
     1
102
RTVSPropertyOp16
 70
     1
102
RTVSPropertyOp17
 70
     1
102
RTVSPropertyOp18
 70
     1
102
RTVSPropertyOp19
 70
     1
102
RTVSPropertyOp20
 70
     1
102
RTVSPropertyOp21
 70
     1
102
RTVSPropertyOp22
 70
     1
102
RTVSPropertyOp23
 70
     1
102
RTVSPropertyOp24
 70
     1
102
RTVSPropertyOp25
 70
     1
102
RTVSPropertyOp26
 70
     1
102
RTVSPropertyOp27
 70
     1
102
RTVSPropertyOp28
 70
     1
102
RTVSPropertyOp29
 70
     1
102
RTVSPropertyOp30
 70
     1
102
RTVSPropertyOp31
 70
     1
102
RTVSPropertyOp32
 70
     1
102
RTVSPropertyOp33
 70
     1
102
RTVSPropertyOp34
 70
     1
102
RTVSPropertyOp35
 70
     1
102
RTVSPropertyOp36
 70
     1
102
RTVSPropertyOp37
 70
     1
102
RTVSPropertyOp38
 70
     1
102
RTVSPropertyOp39
 70
     1
102
RTVSPropertyOp40
 70
     1
102
RTVSPropertyOp41
 70
     1
102
RTVSPropertyOp42
 70
     1
102
RTVSPropertyOp43
 70
     1
102
RTVSPropertyOp44
 70
     1
102
RTVSPropertyOp45
 70
     1
102
RTVSPropertyOp46
 70
     1
102
RTVSPropertyOp47
 70
     1
102
RTVSPropertyOp48
 70
     1
102
RTVSPropertyOp49
 70
     1
102
RTVSPropertyOp50
 70
     1
102
RTVSPropertyOp51
 70
     0
102
RTVSPropertyOp52
 70
     0
102
RTVSPropertyOp53
 70
     1
102
RTVSPropertyOp54
 70
     1
102
RTVSPropertyOp55
 70
     1
102
RTVSPropertyOp56
 70
     1
102
RTVSPropertyOp57
 70
     1
102
RTVSPropertyOp58
 70
     1
102
RTVSPropertyOp59
 70
     1
102
RTVSPropertyOp60
 70
     1
102
RTVSPropertyOp61
 70
     1
102
RTVSPropertyOp62
 70
     1
  0
XRECORD
  5
28F
102
{ACAD_REACTORS
330
28E
102
}
330
28E
100
AcDbXrecord
280
     1
102
RTVSPost2010Prop28
280
     0
102
RTVSPost2010PropOp28
 70
     1
102
RTVSPost2010Prop29
280
     1
102
RTVSPost2010PropOp29
 70
     1
102
RTVSPost2010Prop30
280
     1
102
RTVSPost2010PropOp30
 70
     1
102
RTVSPost2010Prop31
280
     0
102
RTVSPost2010PropOp31
 70
     1
102
RTVSPost2010Prop32
280
     0
102
RTVSPost2010PropOp32
 70
     1
102
RTVSPost2010Prop33
280
     0
102
RTVSPost2010PropOp33
 70
     1
102
RTVSPost2010Prop34
280
     0
102
RTVSPost2010PropOp34
 70
     1
102
RTVSPost2010Prop35
280
     0
102
RTVSPost2010PropOp35
 70
     1
102
RTVSPost2010Prop36
280
     0
102
RTVSPost2010PropOp36
 70
     1
102
RTVSPost2010Prop37
 90
       50
102
RTVSPost2010PropOp37
 70
     1
102
RTVSPost2010Prop38
140
0.0
102
RTVSPost2010PropOp38
 70
     1
102
RTVSPost2010Prop39
140
1.0
102
RTVSPost2010PropOp39
 70
     1
102
RTVSPost2010Prop40
 90
        0
102
RTVSPost2010PropOp40
 70
     1
102
RTVSPost2010Prop41ColorIndex
 90
       18
102
RTVSPost2010Prop41ColorRGB
 90
        0
102
RTVSPost2010PropOp41
 70
     1
102
RTVSPost2010Prop42
 90
       50
102
RTVSPost2010PropOp42
 70
     1
102
RTVSPost2010Prop43
 90
        3
102
RTVSPost2010PropOp43
 70
     1
102
RTVSPost2010Prop44ColorIndex
 90
        5
102
RTVSPost2010Prop44ColorRGB
 90
      255
102
RTVSPost2010PropOp44
 70
     1
102
RTVSPost2010Prop45
280
     0
102
RTVSPost2010PropOp45
 70
     1
102
RTVSPost2010Prop46
 90
       50
102
RTVSPost2010PropOp46
 70
     1
102
RTVSPost2010Prop47
 90
       50
102
RTVSPost2010PropOp47
 70
     1
102
RTVSPost2010Prop48
 90
       50
102
RTVSPost2010PropOp48
 70
     1
102
RTVSPost2010Prop49
280
     0
102
RTVSPost2010PropOp49
 70
     1
102
RTVSPost2010Prop50
 90
       50
102
RTVSPost2010PropOp50
 70
     1
102
RTVSPost2010Prop51ColorIndex
 90
      256
102
RTVSPost2010Prop51ColorRGB
 90
-16777216
102
RTVSPost2010PropOp51
 70
     0
102
RTVSPost2010Prop52
140
1.0
102
RTVSPost2010PropOp52
 70
     0
102
RTVSPost2010Prop53
 90
        2
102
RTVSPost2010PropOp53
 70
     1
102
RTVSPost2010Prop54
  1
strokes_ogs.tif
102
RTVSPost2010PropOp54
 70
     1
102
RTVSPost2010Prop55
280
     0
102
RTVSPost2010PropOp55
 70
     1
102
RTVSPost2010Prop56
140
1.0
102
RTVSPost2010PropOp56
 70
     1
102
RTVSPost2010Prop57
140
1.0
102
RTVSPost2010PropOp57
 70
     1
102
RTVSPropertyOp0
 70
     0
102
RTVSPropertyOp1
 70
     0
102
RTVSPropertyOp2
 70
     0
102
RTVSPropertyOp3
 70
     0
102
RTVSPropertyOp4
 70
     0
102
RTVSPropertyOp5
 70
     0
102
RTVSPropertyOp6
 70
     0
102
RTVSPropertyOp7
 70
     0
102
RTVSPropertyOp8
 70
     0
102
RTVSPropertyOp9
 70
     0
102
RTVSPropertyOp10
 70
     0
102
RTVSPropertyOp11
 70
     0
102
RTVSPropertyOp12
 70
     0
102
RTVSPropertyOp13
 70
     0
102
RTVSPropertyOp14
 70
     2
102
RTVSPropertyOp15
 70
     0
102
RTVSPropertyOp16
 70
     0
102
RTVSPropertyOp17
 70
     0
102
RTVSPropertyOp18
 70
     0
102
RTVSPropertyOp19
 70
     0
102
RTVSPropertyOp20
 70
     0
102
RTVSPropertyOp21
 70
     0
102
RTVSPropertyOp22
 70
     0
102
RTVSPropertyOp23
 70
     0
102
RTVSPropertyOp24
 70
     0
102
RTVSPropertyOp25
 70
     0
102
RTVSPropertyOp26
 70
     0
102
RTVSPropertyOp27
 70
     0
102
RTVSPropertyOp28
 70
     1
102
RTVSPropertyOp29
 70
     1
102
RTVSPropertyOp30
 70
     1
102
RTVSPropertyOp31
 70
     1
102
RTVSPropertyOp32
 70
     1
102
RTVSPropertyOp33
 70
     1
102
RTVSPropertyOp34
 70
     1
102
RTVSPropertyOp35
 70
     1
102
RTVSPropertyOp36
 70
     1
102
RTVSPropertyOp37
 70
     1
102
RTVSPropertyOp38
 70
     1
102
RTVSPropertyOp39
 70
     1
102
RTVSPropertyOp40
 70
     1
102
RTVSPropertyOp41
 70
     1
102
RTVSPropertyOp42
 70
     1
102
RTVSPropertyOp43
 70
     1
102
RTVSPropertyOp44
 70
     1
102
RTVSPropertyOp45
 70
     1
102
RTVSPropertyOp46
 70
     1
102
RTVSPropertyOp47
 70
     1
102
RTVSPropertyOp48
 70
     1
102
RTVSPropertyOp49
 70
     1
102
RTVSPropertyOp50
 70
     1
102
RTVSPropertyOp51
 70
     0
102
RTVSPropertyOp52
 70
     0
102
RTVSPropertyOp53
 70
     1
102
RTVSPropertyOp54
 70
     1
102
RTVSPropertyOp55
 70
     1
102
RTVSPropertyOp56
 70
     1
102
RTVSPropertyOp57
 70
     1
102
RTVSPropertyOp58
 70
     1
102
RTVSPropertyOp59
 70
     1
102
RTVSPropertyOp60
 70
     1
102
RTVSPropertyOp61
 70
     1
102
RTVSPropertyOp62
 70
     1
  0
XRECORD
  5
287
102
{ACAD_REACTORS
330
286
102
}
330
286
100
AcDbXrecord
280
     1
102
RTVSPost2010Prop28
280
     0
102
RTVSPost2010PropOp28
 70
     1
102
RTVSPost2010Prop29
280
     1
102
RTVSPost2010PropOp29
 70
     1
102
RTVSPost2010Prop30
280
     1
102
RTVSPost2010PropOp30
 70
     1
102
RTVSPost2010Prop31
280
     0
102
RTVSPost2010PropOp31
 70
     1
102
RTVSPost2010Prop32
280
     0
102
RTVSPost2010PropOp32
 70
     1
102
RTVSPost2010Prop33
280
     0
102
RTVSPost2010PropOp33
 70
     1
102
RTVSPost2010Prop34
280
     0
102
RTVSPost2010PropOp34
 70
     1
102
RTVSPost2010Prop35
280
     0
102
RTVSPost2010PropOp35
 70
     1
102
RTVSPost2010Prop36
280
     0
102
RTVSPost2010PropOp36
 70
     1
102
RTVSPost2010Prop37
 90
       50
102
RTVSPost2010PropOp37
 70
     1
102
RTVSPost2010Prop38
140
0.0
102
RTVSPost2010PropOp38
 70
     1
102
RTVSPost2010Prop39
140
1.0
102
RTVSPost2010PropOp39
 70
     1
102
RTVSPost2010Prop40
 90
        0
102
RTVSPost2010PropOp40
 70
     1
102
RTVSPost2010Prop41ColorIndex
 90
       18
102
RTVSPost2010Prop41ColorRGB
 90
        0
102
RTVSPost2010PropOp41
 70
     1
102
RTVSPost2010Prop42
 90
       50
102
RTVSPost2010PropOp42
 70
     1
102
RTVSPost2010Prop43
 90
        3
102
RTVSPost2010PropOp43
 70
     1
102
RTVSPost2010Prop44ColorIndex
 90
        5
102
RTVSPost2010Prop44ColorRGB
 90
      255
102
RTVSPost2010PropOp44
 70
     1
102
RTVSPost2010Prop45
280
     0
102
RTVSPost2010PropOp45
 70
     1
102
RTVSPost2010Prop46
 90
       50
102
RTVSPost2010PropOp46
 70
     1
102
RTVSPost2010Prop47
 90
       50
102
RTVSPost2010PropOp47
 70
     1
102
RTVSPost2010Prop48
 90
       50
102
RTVSPost2010PropOp48
 70
     1
102
RTVSPost2010Prop49
280
     0
102
RTVSPost2010PropOp49
 70
     1
102
RTVSPost2010Prop50
 90
       50
102
RTVSPost2010PropOp50
 70
     1
102
RTVSPost2010Prop51ColorIndex
 90
      256
102
RTVSPost2010Prop51ColorRGB
 90
-16777216
102
RTVSPost2010PropOp51
 70
     0
102
RTVSPost2010Prop52
140
1.0
102
RTVSPost2010PropOp52
 70
     0
102
RTVSPost2010Prop53
 90
        2
102
RTVSPost2010PropOp53
 70
     1
102
RTVSPost2010Prop54
  1
strokes_ogs.tif
102
RTVSPost2010PropOp54
 70
     1
102
RTVSPost2010Prop55
280
     0
102
RTVSPost2010PropOp55
 70
     1
102
RTVSPost2010Prop56
140
1.0
102
RTVSPost2010PropOp56
 70
     1
102
RTVSPost2010Prop57
140
1.0
102
RTVSPost2010PropOp57
 70
     1
102
RTVSPropertyOp0
 70
     1
102
RTVSPropertyOp1
 70
     1
102
RTVSPropertyOp2
 70
     1
102
RTVSPropertyOp3
 70
     1
102
RTVSPropertyOp4
 70
     1
102
RTVSPropertyOp5
 70
     1
102
RTVSPropertyOp6
 70
     1
102
RTVSPropertyOp7
 70
     1
102
RTVSPropertyOp8
 70
     1
102
RTVSPropertyOp9
 70
     1
102
RTVSPropertyOp10
 70
     1
102
RTVSPropertyOp11
 70
     1
102
RTVSPropertyOp12
 70
     1
102
RTVSPropertyOp13
 70
     1
102
RTVSPropertyOp14
 70
     1
102
RTVSPropertyOp15
 70
     1
102
RTVSPropertyOp16
 70
     1
102
RTVSPropertyOp17
 70
     1
102
RTVSPropertyOp18
 70
     1
102
RTVSPropertyOp19
 70
     1
102
RTVSPropertyOp20
 70
     1
102
RTVSPropertyOp21
 70
     1
102
RTVSPropertyOp22
 70
     1
102
RTVSPropertyOp23
 70
     1
102
RTVSPropertyOp24
 70
     1
102
RTVSPropertyOp25
 70
     1
102
RTVSPropertyOp26
 70
     1
102
RTVSPropertyOp27
 70
     1
102
RTVSPropertyOp28
 70
     1
102
RTVSPropertyOp29
 70
     1
102
RTVSPropertyOp30
 70
     1
102
RTVSPropertyOp31
 70
     1
102
RTVSPropertyOp32
 70
     1
102
RTVSPropertyOp33
 70
     1
102
RTVSPropertyOp34
 70
     1
102
RTVSPropertyOp35
 70
     1
102
RTVSPropertyOp36
 70
     1
102
RTVSPropertyOp37
 70
     1
102
RTVSPropertyOp38
 70
     1
102
RTVSPropertyOp39
 70
     1
102
RTVSPropertyOp40
 70
     1
102
RTVSPropertyOp41
 70
     1
102
RTVSPropertyOp42
 70
     1
102
RTVSPropertyOp43
 70
     1
102
RTVSPropertyOp44
 70
     1
102
RTVSPropertyOp45
 70
     1
102
RTVSPropertyOp46
 70
     1
102
RTVSPropertyOp47
 70
     1
102
RTVSPropertyOp48
 70
     1
102
RTVSPropertyOp49
 70
     1
102
RTVSPropertyOp50
 70
     1
102
RTVSPropertyOp51
 70
     0
102
RTVSPropertyOp52
 70
     0
102
RTVSPropertyOp53
 70
     1
102
RTVSPropertyOp54
 70
     1
102
RTVSPropertyOp55
 70
     1
102
RTVSPropertyOp56
 70
     1
102
RTVSPropertyOp57
 70
     1
102
RTVSPropertyOp58
 70
     1
102
RTVSPropertyOp59
 70
     1
102
RTVSPropertyOp60
 70
     1
102
RTVSPropertyOp61
 70
     1
102
RTVSPropertyOp62
 70
     1
  0
XRECORD
  5
26B
102
{ACAD_REACTORS
330
26A
102
}
330
26A
100
AcDbXrecord
280
     1
102
RTVSPost2010Prop28
280
     0
102
RTVSPost2010PropOp28
 70
     1
102
RTVSPost2010Prop29
280
     1
102
RTVSPost2010PropOp29
 70
     1
102
RTVSPost2010Prop30
280
     1
102
RTVSPost2010PropOp30
 70
     1
102
RTVSPost2010Prop31
280
     0
102
RTVSPost2010PropOp31
 70
     1
102
RTVSPost2010Prop32
280
     0
102
RTVSPost2010PropOp32
 70
     1
102
RTVSPost2010Prop33
280
     0
102
RTVSPost2010PropOp33
 70
     1
102
RTVSPost2010Prop34
280
     0
102
RTVSPost2010PropOp34
 70
     1
102
RTVSPost2010Prop35
280
     0
102
RTVSPost2010PropOp35
 70
     1
102
RTVSPost2010Prop36
280
     0
102
RTVSPost2010PropOp36
 70
     1
102
RTVSPost2010Prop37
 90
       50
102
RTVSPost2010PropOp37
 70
     1
102
RTVSPost2010Prop38
140
0.0
102
RTVSPost2010PropOp38
 70
     1
102
RTVSPost2010Prop39
140
1.0
102
RTVSPost2010PropOp39
 70
     1
102
RTVSPost2010Prop40
 90
        0
102
RTVSPost2010PropOp40
 70
     1
102
RTVSPost2010Prop41ColorIndex
 90
       18
102
RTVSPost2010Prop41ColorRGB
 90
        0
102
RTVSPost2010PropOp41
 70
     1
102
RTVSPost2010Prop42
 90
       50
102
RTVSPost2010PropOp42
 70
     1
102
RTVSPost2010Prop43
 90
        3
102
RTVSPost2010PropOp43
 70
     1
102
RTVSPost2010Prop44ColorIndex
 90
        5
102
RTVSPost2010Prop44ColorRGB
 90
      255
102
RTVSPost2010PropOp44
 70
     1
102
RTVSPost2010Prop45
280
     0
102
RTVSPost2010PropOp45
 70
     1
102
RTVSPost2010Prop46
 90
       50
102
RTVSPost2010PropOp46
 70
     1
102
RTVSPost2010Prop47
 90
       50
102
RTVSPost2010PropOp47
 70
     1
102
RTVSPost2010Prop48
 90
       50
102
RTVSPost2010PropOp48
 70
     1
102
RTVSPost2010Prop49
280
     0
102
RTVSPost2010PropOp49
 70
     1
102
RTVSPost2010Prop50
 90
       50
102
RTVSPost2010PropOp50
 70
     1
102
RTVSPost2010Prop51ColorIndex
 90
      256
102
RTVSPost2010Prop51ColorRGB
 90
-16777216
102
RTVSPost2010PropOp51
 70
     0
102
RTVSPost2010Prop52
140
1.0
102
RTVSPost2010PropOp52
 70
     0
102
RTVSPost2010Prop53
 90
        2
102
RTVSPost2010PropOp53
 70
     1
102
RTVSPost2010Prop54
  1
strokes_ogs.tif
102
RTVSPost2010PropOp54
 70
     1
102
RTVSPost2010Prop55
280
     0
102
RTVSPost2010PropOp55
 70
     1
102
RTVSPost2010Prop56
140
1.0
102
RTVSPost2010PropOp56
 70
     1
102
RTVSPost2010Prop57
140
1.0
102
RTVSPost2010PropOp57
 70
     1
102
RTVSPropertyOp0
 70
     1
102
RTVSPropertyOp1
 70
     1
102
RTVSPropertyOp2
 70
     1
102
RTVSPropertyOp3
 70
     1
102
RTVSPropertyOp4
 70
     1
102
RTVSPropertyOp5
 70
     1
102
RTVSPropertyOp6
 70
     1
102
RTVSPropertyOp7
 70
     1
102
RTVSPropertyOp8
 70
     1
102
RTVSPropertyOp9
 70
     1
102
RTVSPropertyOp10
 70
     1
102
RTVSPropertyOp11
 70
     1
102
RTVSPropertyOp12
 70
     1
102
RTVSPropertyOp13
 70
     1
102
RTVSPropertyOp14
 70
     1
102
RTVSPropertyOp15
 70
     1
102
RTVSPropertyOp16
 70
     1
102
RTVSPropertyOp17
 70
     1
102
RTVSPropertyOp18
 70
     1
102
RTVSPropertyOp19
 70
     1
102
RTVSPropertyOp20
 70
     1
102
RTVSPropertyOp21
 70
     1
102
RTVSPropertyOp22
 70
     1
102
RTVSPropertyOp23
 70
     1
102
RTVSPropertyOp24
 70
     1
102
RTVSPropertyOp25
 70
     1
102
RTVSPropertyOp26
 70
     1
102
RTVSPropertyOp27
 70
     1
102
RTVSPropertyOp28
 70
     1
102
RTVSPropertyOp29
 70
     1
102
RTVSPropertyOp30
 70
     1
102
RTVSPropertyOp31
 70
     1
102
RTVSPropertyOp32
 70
     1
102
RTVSPropertyOp33
 70
     1
102
RTVSPropertyOp34
 70
     1
102
RTVSPropertyOp35
 70
     1
102
RTVSPropertyOp36
 70
     1
102
RTVSPropertyOp37
 70
     1
102
RTVSPropertyOp38
 70
     1
102
RTVSPropertyOp39
 70
     1
102
RTVSPropertyOp40
 70
     1
102
RTVSPropertyOp41
 70
     1
102
RTVSPropertyOp42
 70
     1
102
RTVSPropertyOp43
 70
     1
102
RTVSPropertyOp44
 70
     1
102
RTVSPropertyOp45
 70
     1
102
RTVSPropertyOp46
 70
     1
102
RTVSPropertyOp47
 70
     1
102
RTVSPropertyOp48
 70
     1
102
RTVSPropertyOp49
 70
     1
102
RTVSPropertyOp50
 70
     1
102
RTVSPropertyOp51
 70
     0
102
RTVSPropertyOp52
 70
     0
102
RTVSPropertyOp53
 70
     1
102
RTVSPropertyOp54
 70
     1
102
RTVSPropertyOp55
 70
     1
102
RTVSPropertyOp56
 70
     1
102
RTVSPropertyOp57
 70
     1
102
RTVSPropertyOp58
 70
     1
102
RTVSPropertyOp59
 70
     1
102
RTVSPropertyOp60
 70
     1
102
RTVSPropertyOp61
 70
     1
102
RTVSPropertyOp62
 70
     1
  0
XRECORD
  5
26D
102
{ACAD_REACTORS
330
26C
102
}
330
26C
100
AcDbXrecord
280
     1
102
RTVSPost2010Prop28
280
     0
102
RTVSPost2010PropOp28
 70
     1
102
RTVSPost2010Prop29
280
     1
102
RTVSPost2010PropOp29
 70
     1
102
RTVSPost2010Prop30
280
     1
102
RTVSPost2010PropOp30
 70
     1
102
RTVSPost2010Prop31
280
     0
102
RTVSPost2010PropOp31
 70
     1
102
RTVSPost2010Prop32
280
     0
102
RTVSPost2010PropOp32
 70
     1
102
RTVSPost2010Prop33
280
     0
102
RTVSPost2010PropOp33
 70
     1
102
RTVSPost2010Prop34
280
     0
102
RTVSPost2010PropOp34
 70
     1
102
RTVSPost2010Prop35
280
     0
102
RTVSPost2010PropOp35
 70
     1
102
RTVSPost2010Prop36
280
     0
102
RTVSPost2010PropOp36
 70
     1
102
RTVSPost2010Prop37
 90
       50
102
RTVSPost2010PropOp37
 70
     1
102
RTVSPost2010Prop38
140
0.0
102
RTVSPost2010PropOp38
 70
     1
102
RTVSPost2010Prop39
140
1.0
102
RTVSPost2010PropOp39
 70
     1
102
RTVSPost2010Prop40
 90
        0
102
RTVSPost2010PropOp40
 70
     1
102
RTVSPost2010Prop41ColorIndex
 90
       18
102
RTVSPost2010Prop41ColorRGB
 90
        0
102
RTVSPost2010PropOp41
 70
     1
102
RTVSPost2010Prop42
 90
       50
102
RTVSPost2010PropOp42
 70
     1
102
RTVSPost2010Prop43
 90
        3
102
RTVSPost2010PropOp43
 70
     1
102
RTVSPost2010Prop44ColorIndex
 90
        5
102
RTVSPost2010Prop44ColorRGB
 90
      255
102
RTVSPost2010PropOp44
 70
     1
102
RTVSPost2010Prop45
280
     0
102
RTVSPost2010PropOp45
 70
     1
102
RTVSPost2010Prop46
 90
       50
102
RTVSPost2010PropOp46
 70
     1
102
RTVSPost2010Prop47
 90
       50
102
RTVSPost2010PropOp47
 70
     1
102
RTVSPost2010Prop48
 90
       50
102
RTVSPost2010PropOp48
 70
     1
102
RTVSPost2010Prop49
280
     0
102
RTVSPost2010PropOp49
 70
     1
102
RTVSPost2010Prop50
 90
       50
102
RTVSPost2010PropOp50
 70
     1
102
RTVSPost2010Prop51ColorIndex
 90
      256
102
RTVSPost2010Prop51ColorRGB
 90
-16777216
102
RTVSPost2010PropOp51
 70
     0
102
RTVSPost2010Prop52
140
1.0
102
RTVSPost2010PropOp52
 70
     0
102
RTVSPost2010Prop53
 90
        2
102
RTVSPost2010PropOp53
 70
     1
102
RTVSPost2010Prop54
  1
strokes_ogs.tif
102
RTVSPost2010PropOp54
 70
     1
102
RTVSPost2010Prop55
280
     0
102
RTVSPost2010PropOp55
 70
     1
102
RTVSPost2010Prop56
140
1.0
102
RTVSPost2010PropOp56
 70
     1
102
RTVSPost2010Prop57
140
1.0
102
RTVSPost2010PropOp57
 70
     1
102
RTVSPropertyOp0
 70
     1
102
RTVSPropertyOp1
 70
     1
102
RTVSPropertyOp2
 70
     1
102
RTVSPropertyOp3
 70
     1
102
RTVSPropertyOp4
 70
     1
102
RTVSPropertyOp5
 70
     1
102
RTVSPropertyOp6
 70
     1
102
RTVSPropertyOp7
 70
     1
102
RTVSPropertyOp8
 70
     1
102
RTVSPropertyOp9
 70
     1
102
RTVSPropertyOp10
 70
     1
102
RTVSPropertyOp11
 70
     1
102
RTVSPropertyOp12
 70
     1
102
RTVSPropertyOp13
 70
     1
102
RTVSPropertyOp14
 70
     1
102
RTVSPropertyOp15
 70
     1
102
RTVSPropertyOp16
 70
     1
102
RTVSPropertyOp17
 70
     1
102
RTVSPropertyOp18
 70
     1
102
RTVSPropertyOp19
 70
     1
102
RTVSPropertyOp20
 70
     1
102
RTVSPropertyOp21
 70
     1
102
RTVSPropertyOp22
 70
     1
102
RTVSPropertyOp23
 70
     1
102
RTVSPropertyOp24
 70
     1
102
RTVSPropertyOp25
 70
     1
102
RTVSPropertyOp26
 70
     1
102
RTVSPropertyOp27
 70
     1
102
RTVSPropertyOp28
 70
     1
102
RTVSPropertyOp29
 70
     1
102
RTVSPropertyOp30
 70
     1
102
RTVSPropertyOp31
 70
     1
102
RTVSPropertyOp32
 70
     1
102
RTVSPropertyOp33
 70
     1
102
RTVSPropertyOp34
 70
     1
102
RTVSPropertyOp35
 70
     1
102
RTVSPropertyOp36
 70
     1
102
RTVSPropertyOp37
 70
     1
102
RTVSPropertyOp38
 70
     1
102
RTVSPropertyOp39
 70
     1
102
RTVSPropertyOp40
 70
     1
102
RTVSPropertyOp41
 70
     1
102
RTVSPropertyOp42
 70
     1
102
RTVSPropertyOp43
 70
     1
102
RTVSPropertyOp44
 70
     1
102
RTVSPropertyOp45
 70
     1
102
RTVSPropertyOp46
 70
     1
102
RTVSPropertyOp47
 70
     1
102
RTVSPropertyOp48
 70
     1
102
RTVSPropertyOp49
 70
     1
102
RTVSPropertyOp50
 70
     1
102
RTVSPropertyOp51
 70
     0
102
RTVSPropertyOp52
 70
     0
102
RTVSPropertyOp53
 70
     1
102
RTVSPropertyOp54
 70
     1
102
RTVSPropertyOp55
 70
     1
102
RTVSPropertyOp56
 70
     1
102
RTVSPropertyOp57
 70
     1
102
RTVSPropertyOp58
 70
     1
102
RTVSPropertyOp59
 70
     1
102
RTVSPropertyOp60
 70
     1
102
RTVSPropertyOp61
 70
     1
102
RTVSPropertyOp62
 70
     1
  0
XRECORD
  5
26F
102
{ACAD_REACTORS
330
26E
102
}
330
26E
100
AcDbXrecord
280
     1
102
RTVSPost2010Prop28
280
     0
102
RTVSPost2010PropOp28
 70
     1
102
RTVSPost2010Prop29
280
     1
102
RTVSPost2010PropOp29
 70
     1
102
RTVSPost2010Prop30
280
     1
102
RTVSPost2010PropOp30
 70
     1
102
RTVSPost2010Prop31
280
     0
102
RTVSPost2010PropOp31
 70
     1
102
RTVSPost2010Prop32
280
     0
102
RTVSPost2010PropOp32
 70
     1
102
RTVSPost2010Prop33
280
     0
102
RTVSPost2010PropOp33
 70
     1
102
RTVSPost2010Prop34
280
     0
102
RTVSPost2010PropOp34
 70
     1
102
RTVSPost2010Prop35
280
     0
102
RTVSPost2010PropOp35
 70
     1
102
RTVSPost2010Prop36
280
     0
102
RTVSPost2010PropOp36
 70
     1
102
RTVSPost2010Prop37
 90
       50
102
RTVSPost2010PropOp37
 70
     1
102
RTVSPost2010Prop38
140
0.0
102
RTVSPost2010PropOp38
 70
     1
102
RTVSPost2010Prop39
140
1.0
102
RTVSPost2010PropOp39
 70
     1
102
RTVSPost2010Prop40
 90
        0
102
RTVSPost2010PropOp40
 70
     1
102
RTVSPost2010Prop41ColorIndex
 90
       18
102
RTVSPost2010Prop41ColorRGB
 90
        0
102
RTVSPost2010PropOp41
 70
     1
102
RTVSPost2010Prop42
 90
       50
102
RTVSPost2010PropOp42
 70
     1
102
RTVSPost2010Prop43
 90
        3
102
RTVSPost2010PropOp43
 70
     1
102
RTVSPost2010Prop44ColorIndex
 90
        5
102
RTVSPost2010Prop44ColorRGB
 90
      255
102
RTVSPost2010PropOp44
 70
     1
102
RTVSPost2010Prop45
280
     0
102
RTVSPost2010PropOp45
 70
     1
102
RTVSPost2010Prop46
 90
       50
102
RTVSPost2010PropOp46
 70
     1
102
RTVSPost2010Prop47
 90
       50
102
RTVSPost2010PropOp47
 70
     1
102
RTVSPost2010Prop48
 90
       50
102
RTVSPost2010PropOp48
 70
     1
102
RTVSPost2010Prop49
280
     0
102
RTVSPost2010PropOp49
 70
     1
102
RTVSPost2010Prop50
 90
       50
102
RTVSPost2010PropOp50
 70
     1
102
RTVSPost2010Prop51ColorIndex
 90
      256
102
RTVSPost2010Prop51ColorRGB
 90
-16777216
102
RTVSPost2010PropOp51
 70
     0
102
RTVSPost2010Prop52
140
1.0
102
RTVSPost2010PropOp52
 70
     0
102
RTVSPost2010Prop53
 90
        2
102
RTVSPost2010PropOp53
 70
     1
102
RTVSPost2010Prop54
  1
strokes_ogs.tif
102
RTVSPost2010PropOp54
 70
     1
102
RTVSPost2010Prop55
280
     0
102
RTVSPost2010PropOp55
 70
     1
102
RTVSPost2010Prop56
140
1.0
102
RTVSPost2010PropOp56
 70
     1
102
RTVSPost2010Prop57
140
1.0
102
RTVSPost2010PropOp57
 70
     1
102
RTVSPropertyOp0
 70
     1
102
RTVSPropertyOp1
 70
     1
102
RTVSPropertyOp2
 70
     1
102
RTVSPropertyOp3
 70
     1
102
RTVSPropertyOp4
 70
     1
102
RTVSPropertyOp5
 70
     1
102
RTVSPropertyOp6
 70
     1
102
RTVSPropertyOp7
 70
     1
102
RTVSPropertyOp8
 70
     1
102
RTVSPropertyOp9
 70
     1
102
RTVSPropertyOp10
 70
     1
102
RTVSPropertyOp11
 70
     1
102
RTVSPropertyOp12
 70
     1
102
RTVSPropertyOp13
 70
     1
102
RTVSPropertyOp14
 70
     1
102
RTVSPropertyOp15
 70
     1
102
RTVSPropertyOp16
 70
     1
102
RTVSPropertyOp17
 70
     1
102
RTVSPropertyOp18
 70
     1
102
RTVSPropertyOp19
 70
     1
102
RTVSPropertyOp20
 70
     1
102
RTVSPropertyOp21
 70
     1
102
RTVSPropertyOp22
 70
     1
102
RTVSPropertyOp23
 70
     1
102
RTVSPropertyOp24
 70
     1
102
RTVSPropertyOp25
 70
     1
102
RTVSPropertyOp26
 70
     1
102
RTVSPropertyOp27
 70
     1
102
RTVSPropertyOp28
 70
     1
102
RTVSPropertyOp29
 70
     1
102
RTVSPropertyOp30
 70
     1
102
RTVSPropertyOp31
 70
     1
102
RTVSPropertyOp32
 70
     1
102
RTVSPropertyOp33
 70
     1
102
RTVSPropertyOp34
 70
     1
102
RTVSPropertyOp35
 70
     1
102
RTVSPropertyOp36
 70
     1
102
RTVSPropertyOp37
 70
     1
102
RTVSPropertyOp38
 70
     1
102
RTVSPropertyOp39
 70
     1
102
RTVSPropertyOp40
 70
     1
102
RTVSPropertyOp41
 70
     1
102
RTVSPropertyOp42
 70
     1
102
RTVSPropertyOp43
 70
     1
102
RTVSPropertyOp44
 70
     1
102
RTVSPropertyOp45
 70
     1
102
RTVSPropertyOp46
 70
     1
102
RTVSPropertyOp47
 70
     1
102
RTVSPropertyOp48
 70
     1
102
RTVSPropertyOp49
 70
     1
102
RTVSPropertyOp50
 70
     1
102
RTVSPropertyOp51
 70
     0
102
RTVSPropertyOp52
 70
     0
102
RTVSPropertyOp53
 70
     1
102
RTVSPropertyOp54
 70
     1
102
RTVSPropertyOp55
 70
     1
102
RTVSPropertyOp56
 70
     1
102
RTVSPropertyOp57
 70
     1
102
RTVSPropertyOp58
 70
     1
102
RTVSPropertyOp59
 70
     1
102
RTVSPropertyOp60
 70
     1
102
RTVSPropertyOp61
 70
     1
102
RTVSPropertyOp62
 70
     1
  0
XRECORD
  5
271
102
{ACAD_REACTORS
330
270
102
}
330
270
100
AcDbXrecord
280
     1
102
RTVSPost2010Prop28
280
     0
102
RTVSPost2010PropOp28
 70
     1
102
RTVSPost2010Prop29
280
     1
102
RTVSPost2010PropOp29
 70
     1
102
RTVSPost2010Prop30
280
     1
102
RTVSPost2010PropOp30
 70
     1
102
RTVSPost2010Prop31
280
     0
102
RTVSPost2010PropOp31
 70
     1
102
RTVSPost2010Prop32
280
     0
102
RTVSPost2010PropOp32
 70
     1
102
RTVSPost2010Prop33
280
     0
102
RTVSPost2010PropOp33
 70
     1
102
RTVSPost2010Prop34
280
     0
102
RTVSPost2010PropOp34
 70
     1
102
RTVSPost2010Prop35
280
     0
102
RTVSPost2010PropOp35
 70
     1
102
RTVSPost2010Prop36
280
     0
102
RTVSPost2010PropOp36
 70
     1
102
RTVSPost2010Prop37
 90
       50
102
RTVSPost2010PropOp37
 70
     1
102
RTVSPost2010Prop38
140
0.0
102
RTVSPost2010PropOp38
 70
     1
102
RTVSPost2010Prop39
140
1.0
102
RTVSPost2010PropOp39
 70
     1
102
RTVSPost2010Prop40
 90
        0
102
RTVSPost2010PropOp40
 70
     1
102
RTVSPost2010Prop41ColorIndex
 90
       18
102
RTVSPost2010Prop41ColorRGB
 90
        0
102
RTVSPost2010PropOp41
 70
     1
102
RTVSPost2010Prop42
 90
       50
102
RTVSPost2010PropOp42
 70
     1
102
RTVSPost2010Prop43
 90
        3
102
RTVSPost2010PropOp43
 70
     1
102
RTVSPost2010Prop44ColorIndex
 90
        5
102
RTVSPost2010Prop44ColorRGB
 90
      255
102
RTVSPost2010PropOp44
 70
     1
102
RTVSPost2010Prop45
280
     0
102
RTVSPost2010PropOp45
 70
     1
102
RTVSPost2010Prop46
 90
       50
102
RTVSPost2010PropOp46
 70
     1
102
RTVSPost2010Prop47
 90
       50
102
RTVSPost2010PropOp47
 70
     1
102
RTVSPost2010Prop48
 90
       50
102
RTVSPost2010PropOp48
 70
     1
102
RTVSPost2010Prop49
280
     0
102
RTVSPost2010PropOp49
 70
     1
102
RTVSPost2010Prop50
 90
       50
102
RTVSPost2010PropOp50
 70
     1
102
RTVSPost2010Prop51ColorIndex
 90
      256
102
RTVSPost2010Prop51ColorRGB
 90
-16777216
102
RTVSPost2010PropOp51
 70
     0
102
RTVSPost2010Prop52
140
1.0
102
RTVSPost2010PropOp52
 70
     0
102
RTVSPost2010Prop53
 90
        2
102
RTVSPost2010PropOp53
 70
     1
102
RTVSPost2010Prop54
  1
strokes_ogs.tif
102
RTVSPost2010PropOp54
 70
     1
102
RTVSPost2010Prop55
280
     0
102
RTVSPost2010PropOp55
 70
     1
102
RTVSPost2010Prop56
140
1.0
102
RTVSPost2010PropOp56
 70
     1
102
RTVSPost2010Prop57
140
1.0
102
RTVSPost2010PropOp57
 70
     1
102
RTVSPropertyOp0
 70
     1
102
RTVSPropertyOp1
 70
     1
102
RTVSPropertyOp2
 70
     1
102
RTVSPropertyOp3
 70
     1
102
RTVSPropertyOp4
 70
     1
102
RTVSPropertyOp5
 70
     1
102
RTVSPropertyOp6
 70
     1
102
RTVSPropertyOp7
 70
     1
102
RTVSPropertyOp8
 70
     1
102
RTVSPropertyOp9
 70
     1
102
RTVSPropertyOp10
 70
     1
102
RTVSPropertyOp11
 70
     1
102
RTVSPropertyOp12
 70
     1
102
RTVSPropertyOp13
 70
     1
102
RTVSPropertyOp14
 70
     1
102
RTVSPropertyOp15
 70
     1
102
RTVSPropertyOp16
 70
     1
102
RTVSPropertyOp17
 70
     1
102
RTVSPropertyOp18
 70
     1
102
RTVSPropertyOp19
 70
     1
102
RTVSPropertyOp20
 70
     1
102
RTVSPropertyOp21
 70
     1
102
RTVSPropertyOp22
 70
     1
102
RTVSPropertyOp23
 70
     1
102
RTVSPropertyOp24
 70
     1
102
RTVSPropertyOp25
 70
     1
102
RTVSPropertyOp26
 70
     1
102
RTVSPropertyOp27
 70
     1
102
RTVSPropertyOp28
 70
     1
102
RTVSPropertyOp29
 70
     1
102
RTVSPropertyOp30
 70
     1
102
RTVSPropertyOp31
 70
     1
102
RTVSPropertyOp32
 70
     1
102
RTVSPropertyOp33
 70
     1
102
RTVSPropertyOp34
 70
     1
102
RTVSPropertyOp35
 70
     1
102
RTVSPropertyOp36
 70
     1
102
RTVSPropertyOp37
 70
     1
102
RTVSPropertyOp38
 70
     1
102
RTVSPropertyOp39
 70
     1
102
RTVSPropertyOp40
 70
     1
102
RTVSPropertyOp41
 70
     1
102
RTVSPropertyOp42
 70
     1
102
RTVSPropertyOp43
 70
     1
102
RTVSPropertyOp44
 70
     1
102
RTVSPropertyOp45
 70
     1
102
RTVSPropertyOp46
 70
     1
102
RTVSPropertyOp47
 70
     1
102
RTVSPropertyOp48
 70
     1
102
RTVSPropertyOp49
 70
     1
102
RTVSPropertyOp50
 70
     1
102
RTVSPropertyOp51
 70
     0
102
RTVSPropertyOp52
 70
     0
102
RTVSPropertyOp53
 70
     1
102
RTVSPropertyOp54
 70
     1
102
RTVSPropertyOp55
 70
     1
102
RTVSPropertyOp56
 70
     1
102
RTVSPropertyOp57
 70
     1
102
RTVSPropertyOp58
 70
     1
102
RTVSPropertyOp59
 70
     1
102
RTVSPropertyOp60
 70
     1
102
RTVSPropertyOp61
 70
     1
102
RTVSPropertyOp62
 70
     1
  0
XRECORD
  5
279
102
{ACAD_REACTORS
330
278
102
}
330
278
100
AcDbXrecord
280
     1
102
RTVSPost2010Prop28
280
     0
102
RTVSPost2010PropOp28
 70
     1
102
RTVSPost2010Prop29
280
     1
102
RTVSPost2010PropOp29
 70
     1
102
RTVSPost2010Prop30
280
     1
102
RTVSPost2010PropOp30
 70
     1
102
RTVSPost2010Prop31
280
     0
102
RTVSPost2010PropOp31
 70
     1
102
RTVSPost2010Prop32
280
     0
102
RTVSPost2010PropOp32
 70
     1
102
RTVSPost2010Prop33
280
     0
102
RTVSPost2010PropOp33
 70
     1
102
RTVSPost2010Prop34
280
     0
102
RTVSPost2010PropOp34
 70
     1
102
RTVSPost2010Prop35
280
     0
102
RTVSPost2010PropOp35
 70
     1
102
RTVSPost2010Prop36
280
     0
102
RTVSPost2010PropOp36
 70
     1
102
RTVSPost2010Prop37
 90
       50
102
RTVSPost2010PropOp37
 70
     1
102
RTVSPost2010Prop38
140
0.0
102
RTVSPost2010PropOp38
 70
     1
102
RTVSPost2010Prop39
140
1.0
102
RTVSPost2010PropOp39
 70
     1
102
RTVSPost2010Prop40
 90
        0
102
RTVSPost2010PropOp40
 70
     1
102
RTVSPost2010Prop41ColorIndex
 90
       18
102
RTVSPost2010Prop41ColorRGB
 90
        0
102
RTVSPost2010PropOp41
 70
     1
102
RTVSPost2010Prop42
 90
       50
102
RTVSPost2010PropOp42
 70
     1
102
RTVSPost2010Prop43
 90
        3
102
RTVSPost2010PropOp43
 70
     1
102
RTVSPost2010Prop44ColorIndex
 90
        5
102
RTVSPost2010Prop44ColorRGB
 90
      255
102
RTVSPost2010PropOp44
 70
     1
102
RTVSPost2010Prop45
280
     0
102
RTVSPost2010PropOp45
 70
     1
102
RTVSPost2010Prop46
 90
       50
102
RTVSPost2010PropOp46
 70
     1
102
RTVSPost2010Prop47
 90
       50
102
RTVSPost2010PropOp47
 70
     1
102
RTVSPost2010Prop48
 90
       50
102
RTVSPost2010PropOp48
 70
     1
102
RTVSPost2010Prop49
280
     0
102
RTVSPost2010PropOp49
 70
     1
102
RTVSPost2010Prop50
 90
       50
102
RTVSPost2010PropOp50
 70
     1
102
RTVSPost2010Prop51ColorIndex
 90
      256
102
RTVSPost2010Prop51ColorRGB
 90
-16777216
102
RTVSPost2010PropOp51
 70
     0
102
RTVSPost2010Prop52
140
1.0
102
RTVSPost2010PropOp52
 70
     0
102
RTVSPost2010Prop53
 90
        2
102
RTVSPost2010PropOp53
 70
     1
102
RTVSPost2010Prop54
  1
strokes_ogs.tif
102
RTVSPost2010PropOp54
 70
     1
102
RTVSPost2010Prop55
280
     0
102
RTVSPost2010PropOp55
 70
     1
102
RTVSPost2010Prop56
140
1.0
102
RTVSPost2010PropOp56
 70
     1
102
RTVSPost2010Prop57
140
1.0
102
RTVSPost2010PropOp57
 70
     1
102
RTVSPropertyOp0
 70
     1
102
RTVSPropertyOp1
 70
     1
102
RTVSPropertyOp2
 70
     1
102
RTVSPropertyOp3
 70
     1
102
RTVSPropertyOp4
 70
     1
102
RTVSPropertyOp5
 70
     1
102
RTVSPropertyOp6
 70
     1
102
RTVSPropertyOp7
 70
     1
102
RTVSPropertyOp8
 70
     1
102
RTVSPropertyOp9
 70
     1
102
RTVSPropertyOp10
 70
     1
102
RTVSPropertyOp11
 70
     1
102
RTVSPropertyOp12
 70
     1
102
RTVSPropertyOp13
 70
     1
102
RTVSPropertyOp14
 70
     1
102
RTVSPropertyOp15
 70
     1
102
RTVSPropertyOp16
 70
     1
102
RTVSPropertyOp17
 70
     1
102
RTVSPropertyOp18
 70
     1
102
RTVSPropertyOp19
 70
     1
102
RTVSPropertyOp20
 70
     1
102
RTVSPropertyOp21
 70
     1
102
RTVSPropertyOp22
 70
     1
102
RTVSPropertyOp23
 70
     1
102
RTVSPropertyOp24
 70
     1
102
RTVSPropertyOp25
 70
     1
102
RTVSPropertyOp26
 70
     1
102
RTVSPropertyOp27
 70
     1
102
RTVSPropertyOp28
 70
     1
102
RTVSPropertyOp29
 70
     1
102
RTVSPropertyOp30
 70
     1
102
RTVSPropertyOp31
 70
     1
102
RTVSPropertyOp32
 70
     1
102
RTVSPropertyOp33
 70
     1
102
RTVSPropertyOp34
 70
     1
102
RTVSPropertyOp35
 70
     1
102
RTVSPropertyOp36
 70
     1
102
RTVSPropertyOp37
 70
     1
102
RTVSPropertyOp38
 70
     1
102
RTVSPropertyOp39
 70
     1
102
RTVSPropertyOp40
 70
     1
102
RTVSPropertyOp41
 70
     1
102
RTVSPropertyOp42
 70
     1
102
RTVSPropertyOp43
 70
     1
102
RTVSPropertyOp44
 70
     1
102
RTVSPropertyOp45
 70
     1
102
RTVSPropertyOp46
 70
     1
102
RTVSPropertyOp47
 70
     1
102
RTVSPropertyOp48
 70
     1
102
RTVSPropertyOp49
 70
     1
102
RTVSPropertyOp50
 70
     1
102
RTVSPropertyOp51
 70
     0
102
RTVSPropertyOp52
 70
     0
102
RTVSPropertyOp53
 70
     1
102
RTVSPropertyOp54
 70
     1
102
RTVSPropertyOp55
 70
     1
102
RTVSPropertyOp56
 70
     1
102
RTVSPropertyOp57
 70
     1
102
RTVSPropertyOp58
 70
     1
102
RTVSPropertyOp59
 70
     1
102
RTVSPropertyOp60
 70
     1
102
RTVSPropertyOp61
 70
     1
102
RTVSPropertyOp62
 70
     1
  0
XRECORD
  5
28B
102
{ACAD_REACTORS
330
28A
102
}
330
28A
100
AcDbXrecord
280
     1
102
RTVSPost2010Prop28
280
     0
102
RTVSPost2010PropOp28
 70
     1
102
RTVSPost2010Prop29
280
     1
102
RTVSPost2010PropOp29
 70
     1
102
RTVSPost2010Prop30
280
     1
102
RTVSPost2010PropOp30
 70
     1
102
RTVSPost2010Prop31
280
     0
102
RTVSPost2010PropOp31
 70
     1
102
RTVSPost2010Prop32
280
     0
102
RTVSPost2010PropOp32
 70
     1
102
RTVSPost2010Prop33
280
     0
102
RTVSPost2010PropOp33
 70
     1
102
RTVSPost2010Prop34
280
     0
102
RTVSPost2010PropOp34
 70
     1
102
RTVSPost2010Prop35
280
     0
102
RTVSPost2010PropOp35
 70
     1
102
RTVSPost2010Prop36
280
     0
102
RTVSPost2010PropOp36
 70
     1
102
RTVSPost2010Prop37
 90
       50
102
RTVSPost2010PropOp37
 70
     1
102
RTVSPost2010Prop38
140
0.0
102
RTVSPost2010PropOp38
 70
     1
102
RTVSPost2010Prop39
140
1.0
102
RTVSPost2010PropOp39
 70
     1
102
RTVSPost2010Prop40
 90
        0
102
RTVSPost2010PropOp40
 70
     1
102
RTVSPost2010Prop41ColorIndex
 90
       18
102
RTVSPost2010Prop41ColorRGB
 90
        0
102
RTVSPost2010PropOp41
 70
     1
102
RTVSPost2010Prop42
 90
       50
102
RTVSPost2010PropOp42
 70
     1
102
RTVSPost2010Prop43
 90
        3
102
RTVSPost2010PropOp43
 70
     1
102
RTVSPost2010Prop44ColorIndex
 90
        5
102
RTVSPost2010Prop44ColorRGB
 90
      255
102
RTVSPost2010PropOp44
 70
     1
102
RTVSPost2010Prop45
280
     0
102
RTVSPost2010PropOp45
 70
     1
102
RTVSPost2010Prop46
 90
       50
102
RTVSPost2010PropOp46
 70
     1
102
RTVSPost2010Prop47
 90
       50
102
RTVSPost2010PropOp47
 70
     1
102
RTVSPost2010Prop48
 90
       50
102
RTVSPost2010PropOp48
 70
     1
102
RTVSPost2010Prop49
280
     0
102
RTVSPost2010PropOp49
 70
     1
102
RTVSPost2010Prop50
 90
       50
102
RTVSPost2010PropOp50
 70
     1
102
RTVSPost2010Prop51ColorIndex
 90
      256
102
RTVSPost2010Prop51ColorRGB
 90
-16777216
102
RTVSPost2010PropOp51
 70
     0
102
RTVSPost2010Prop52
140
1.0
102
RTVSPost2010PropOp52
 70
     0
102
RTVSPost2010Prop53
 90
        2
102
RTVSPost2010PropOp53
 70
     1
102
RTVSPost2010Prop54
  1
strokes_ogs.tif
102
RTVSPost2010PropOp54
 70
     1
102
RTVSPost2010Prop55
280
     0
102
RTVSPost2010PropOp55
 70
     1
102
RTVSPost2010Prop56
140
1.0
102
RTVSPost2010PropOp56
 70
     1
102
RTVSPost2010Prop57
140
1.0
102
RTVSPost2010PropOp57
 70
     1
102
RTVSPropertyOp0
 70
     0
102
RTVSPropertyOp1
 70
     0
102
RTVSPropertyOp2
 70
     0
102
RTVSPropertyOp3
 70
     0
102
RTVSPropertyOp4
 70
     0
102
RTVSPropertyOp5
 70
     0
102
RTVSPropertyOp6
 70
     0
102
RTVSPropertyOp7
 70
     0
102
RTVSPropertyOp8
 70
     0
102
RTVSPropertyOp9
 70
     0
102
RTVSPropertyOp10
 70
     0
102
RTVSPropertyOp11
 70
     0
102
RTVSPropertyOp12
 70
     0
102
RTVSPropertyOp13
 70
     0
102
RTVSPropertyOp14
 70
     2
102
RTVSPropertyOp15
 70
     0
102
RTVSPropertyOp16
 70
     0
102
RTVSPropertyOp17
 70
     0
102
RTVSPropertyOp18
 70
     0
102
RTVSPropertyOp19
 70
     0
102
RTVSPropertyOp20
 70
     0
102
RTVSPropertyOp21
 70
     0
102
RTVSPropertyOp22
 70
     0
102
RTVSPropertyOp23
 70
     0
102
RTVSPropertyOp24
 70
     0
102
RTVSPropertyOp25
 70
     0
102
RTVSPropertyOp26
 70
     0
102
RTVSPropertyOp27
 70
     0
102
RTVSPropertyOp28
 70
     1
102
RTVSPropertyOp29
 70
     1
102
RTVSPropertyOp30
 70
     1
102
RTVSPropertyOp31
 70
     1
102
RTVSPropertyOp32
 70
     1
102
RTVSPropertyOp33
 70
     1
102
RTVSPropertyOp34
 70
     1
102
RTVSPropertyOp35
 70
     1
102
RTVSPropertyOp36
 70
     1
102
RTVSPropertyOp37
 70
     1
102
RTVSPropertyOp38
 70
     1
102
RTVSPropertyOp39
 70
     1
102
RTVSPropertyOp40
 70
     1
102
RTVSPropertyOp41
 70
     1
102
RTVSPropertyOp42
 70
     1
102
RTVSPropertyOp43
 70
     1
102
RTVSPropertyOp44
 70
     1
102
RTVSPropertyOp45
 70
     1
102
RTVSPropertyOp46
 70
     1
102
RTVSPropertyOp47
 70
     1
102
RTVSPropertyOp48
 70
     1
102
RTVSPropertyOp49
 70
     1
102
RTVSPropertyOp50
 70
     1
102
RTVSPropertyOp51
 70
     0
102
RTVSPropertyOp52
 70
     0
102
RTVSPropertyOp53
 70
     1
102
RTVSPropertyOp54
 70
     1
102
RTVSPropertyOp55
 70
     1
102
RTVSPropertyOp56
 70
     1
102
RTVSPropertyOp57
 70
     1
102
RTVSPropertyOp58
 70
     1
102
RTVSPropertyOp59
 70
     1
102
RTVSPropertyOp60
 70
     1
102
RTVSPropertyOp61
 70
     1
102
RTVSPropertyOp62
 70
     1
  0
XRECORD
  5
285
102
{ACAD_REACTORS
330
284
102
}
330
284
100
AcDbXrecord
280
     1
102
RTVSPost2010Prop28
280
     0
102
RTVSPost2010PropOp28
 70
     1
102
RTVSPost2010Prop29
280
     1
102
RTVSPost2010PropOp29
 70
     1
102
RTVSPost2010Prop30
280
     1
102
RTVSPost2010PropOp30
 70
     1
102
RTVSPost2010Prop31
280
     0
102
RTVSPost2010PropOp31
 70
     1
102
RTVSPost2010Prop32
280
     0
102
RTVSPost2010PropOp32
 70
     1
102
RTVSPost2010Prop33
280
     0
102
RTVSPost2010PropOp33
 70
     1
102
RTVSPost2010Prop34
280
     0
102
RTVSPost2010PropOp34
 70
     1
102
RTVSPost2010Prop35
280
     0
102
RTVSPost2010PropOp35
 70
     1
102
RTVSPost2010Prop36
280
     0
102
RTVSPost2010PropOp36
 70
     1
102
RTVSPost2010Prop37
 90
       50
102
RTVSPost2010PropOp37
 70
     1
102
RTVSPost2010Prop38
140
0.0
102
RTVSPost2010PropOp38
 70
     1
102
RTVSPost2010Prop39
140
1.0
102
RTVSPost2010PropOp39
 70
     1
102
RTVSPost2010Prop40
 90
        0
102
RTVSPost2010PropOp40
 70
     1
102
RTVSPost2010Prop41ColorIndex
 90
       18
102
RTVSPost2010Prop41ColorRGB
 90
        0
102
RTVSPost2010PropOp41
 70
     1
102
RTVSPost2010Prop42
 90
       50
102
RTVSPost2010PropOp42
 70
     1
102
RTVSPost2010Prop43
 90
        3
102
RTVSPost2010PropOp43
 70
     1
102
RTVSPost2010Prop44ColorIndex
 90
        5
102
RTVSPost2010Prop44ColorRGB
 90
      255
102
RTVSPost2010PropOp44
 70
     1
102
RTVSPost2010Prop45
280
     0
102
RTVSPost2010PropOp45
 70
     1
102
RTVSPost2010Prop46
 90
       50
102
RTVSPost2010PropOp46
 70
     1
102
RTVSPost2010Prop47
 90
       50
102
RTVSPost2010PropOp47
 70
     1
102
RTVSPost2010Prop48
 90
       50
102
RTVSPost2010PropOp48
 70
     1
102
RTVSPost2010Prop49
280
     0
102
RTVSPost2010PropOp49
 70
     1
102
RTVSPost2010Prop50
 90
       50
102
RTVSPost2010PropOp50
 70
     1
102
RTVSPost2010Prop51ColorIndex
 90
      256
102
RTVSPost2010Prop51ColorRGB
 90
-16777216
102
RTVSPost2010PropOp51
 70
     0
102
RTVSPost2010Prop52
140
1.0
102
RTVSPost2010PropOp52
 70
     0
102
RTVSPost2010Prop53
 90
        2
102
RTVSPost2010PropOp53
 70
     1
102
RTVSPost2010Prop54
  1
strokes_ogs.tif
102
RTVSPost2010PropOp54
 70
     1
102
RTVSPost2010Prop55
280
     0
102
RTVSPost2010PropOp55
 70
     1
102
RTVSPost2010Prop56
140
1.0
102
RTVSPost2010PropOp56
 70
     1
102
RTVSPost2010Prop57
140
1.0
102
RTVSPost2010PropOp57
 70
     1
102
RTVSPropertyOp0
 70
     1
102
RTVSPropertyOp1
 70
     1
102
RTVSPropertyOp2
 70
     1
102
RTVSPropertyOp3
 70
     1
102
RTVSPropertyOp4
 70
     1
102
RTVSPropertyOp5
 70
     1
102
RTVSPropertyOp6
 70
     1
102
RTVSPropertyOp7
 70
     1
102
RTVSPropertyOp8
 70
     1
102
RTVSPropertyOp9
 70
     1
102
RTVSPropertyOp10
 70
     1
102
RTVSPropertyOp11
 70
     1
102
RTVSPropertyOp12
 70
     1
102
RTVSPropertyOp13
 70
     1
102
RTVSPropertyOp14
 70
     1
102
RTVSPropertyOp15
 70
     1
102
RTVSPropertyOp16
 70
     1
102
RTVSPropertyOp17
 70
     1
102
RTVSPropertyOp18
 70
     1
102
RTVSPropertyOp19
 70
     1
102
RTVSPropertyOp20
 70
     1
102
RTVSPropertyOp21
 70
     1
102
RTVSPropertyOp22
 70
     1
102
RTVSPropertyOp23
 70
     1
102
RTVSPropertyOp24
 70
     1
102
RTVSPropertyOp25
 70
     1
102
RTVSPropertyOp26
 70
     1
102
RTVSPropertyOp27
 70
     1
102
RTVSPropertyOp28
 70
     1
102
RTVSPropertyOp29
 70
     1
102
RTVSPropertyOp30
 70
     1
102
RTVSPropertyOp31
 70
     1
102
RTVSPropertyOp32
 70
     1
102
RTVSPropertyOp33
 70
     1
102
RTVSPropertyOp34
 70
     1
102
RTVSPropertyOp35
 70
     1
102
RTVSPropertyOp36
 70
     1
102
RTVSPropertyOp37
 70
     1
102
RTVSPropertyOp38
 70
     1
102
RTVSPropertyOp39
 70
     1
102
RTVSPropertyOp40
 70
     1
102
RTVSPropertyOp41
 70
     1
102
RTVSPropertyOp42
 70
     1
102
RTVSPropertyOp43
 70
     1
102
RTVSPropertyOp44
 70
     1
102
RTVSPropertyOp45
 70
     1
102
RTVSPropertyOp46
 70
     1
102
RTVSPropertyOp47
 70
     1
102
RTVSPropertyOp48
 70
     1
102
RTVSPropertyOp49
 70
     1
102
RTVSPropertyOp50
 70
     1
102
RTVSPropertyOp51
 70
     0
102
RTVSPropertyOp52
 70
     0
102
RTVSPropertyOp53
 70
     1
102
RTVSPropertyOp54
 70
     1
102
RTVSPropertyOp55
 70
     1
102
RTVSPropertyOp56
 70
     1
102
RTVSPropertyOp57
 70
     1
102
RTVSPropertyOp58
 70
     1
102
RTVSPropertyOp59
 70
     1
102
RTVSPropertyOp60
 70
     1
102
RTVSPropertyOp61
 70
     1
102
RTVSPropertyOp62
 70
     1
  0
XRECORD
  5
28D
102
{ACAD_REACTORS
330
28C
102
}
330
28C
100
AcDbXrecord
280
     1
102
RTVSPost2010Prop28
280
     0
102
RTVSPost2010PropOp28
 70
     1
102
RTVSPost2010Prop29
280
     1
102
RTVSPost2010PropOp29
 70
     1
102
RTVSPost2010Prop30
280
     1
102
RTVSPost2010PropOp30
 70
     1
102
RTVSPost2010Prop31
280
     0
102
RTVSPost2010PropOp31
 70
     1
102
RTVSPost2010Prop32
280
     0
102
RTVSPost2010PropOp32
 70
     1
102
RTVSPost2010Prop33
280
     0
102
RTVSPost2010PropOp33
 70
     1
102
RTVSPost2010Prop34
280
     0
102
RTVSPost2010PropOp34
 70
     1
102
RTVSPost2010Prop35
280
     0
102
RTVSPost2010PropOp35
 70
     1
102
RTVSPost2010Prop36
280
     0
102
RTVSPost2010PropOp36
 70
     1
102
RTVSPost2010Prop37
 90
       50
102
RTVSPost2010PropOp37
 70
     1
102
RTVSPost2010Prop38
140
0.0
102
RTVSPost2010PropOp38
 70
     1
102
RTVSPost2010Prop39
140
1.0
102
RTVSPost2010PropOp39
 70
     1
102
RTVSPost2010Prop40
 90
        0
102
RTVSPost2010PropOp40
 70
     1
102
RTVSPost2010Prop41ColorIndex
 90
       18
102
RTVSPost2010Prop41ColorRGB
 90
        0
102
RTVSPost2010PropOp41
 70
     1
102
RTVSPost2010Prop42
 90
       50
102
RTVSPost2010PropOp42
 70
     1
102
RTVSPost2010Prop43
 90
        3
102
RTVSPost2010PropOp43
 70
     1
102
RTVSPost2010Prop44ColorIndex
 90
        5
102
RTVSPost2010Prop44ColorRGB
 90
      255
102
RTVSPost2010PropOp44
 70
     1
102
RTVSPost2010Prop45
280
     0
102
RTVSPost2010PropOp45
 70
     1
102
RTVSPost2010Prop46
 90
       50
102
RTVSPost2010PropOp46
 70
     1
102
RTVSPost2010Prop47
 90
       50
102
RTVSPost2010PropOp47
 70
     1
102
RTVSPost2010Prop48
 90
       50
102
RTVSPost2010PropOp48
 70
     1
102
RTVSPost2010Prop49
280
     0
102
RTVSPost2010PropOp49
 70
     1
102
RTVSPost2010Prop50
 90
       50
102
RTVSPost2010PropOp50
 70
     1
102
RTVSPost2010Prop51ColorIndex
 90
      256
102
RTVSPost2010Prop51ColorRGB
 90
-16777216
102
RTVSPost2010PropOp51
 70
     0
102
RTVSPost2010Prop52
140
1.0
102
RTVSPost2010PropOp52
 70
     0
102
RTVSPost2010Prop53
 90
        2
102
RTVSPost2010PropOp53
 70
     1
102
RTVSPost2010Prop54
  1
strokes_ogs.tif
102
RTVSPost2010PropOp54
 70
     1
102
RTVSPost2010Prop55
280
     0
102
RTVSPost2010PropOp55
 70
     1
102
RTVSPost2010Prop56
140
1.0
102
RTVSPost2010PropOp56
 70
     1
102
RTVSPost2010Prop57
140
1.0
102
RTVSPost2010PropOp57
 70
     1
102
RTVSPropertyOp0
 70
     0
102
RTVSPropertyOp1
 70
     0
102
RTVSPropertyOp2
 70
     0
102
RTVSPropertyOp3
 70
     0
102
RTVSPropertyOp4
 70
     0
102
RTVSPropertyOp5
 70
     0
102
RTVSPropertyOp6
 70
     0
102
RTVSPropertyOp7
 70
     0
102
RTVSPropertyOp8
 70
     0
102
RTVSPropertyOp9
 70
     0
102
RTVSPropertyOp10
 70
     0
102
RTVSPropertyOp11
 70
     0
102
RTVSPropertyOp12
 70
     0
102
RTVSPropertyOp13
 70
     0
102
RTVSPropertyOp14
 70
     2
102
RTVSPropertyOp15
 70
     0
102
RTVSPropertyOp16
 70
     0
102
RTVSPropertyOp17
 70
     0
102
RTVSPropertyOp18
 70
     0
102
RTVSPropertyOp19
 70
     0
102
RTVSPropertyOp20
 70
     0
102
RTVSPropertyOp21
 70
     0
102
RTVSPropertyOp22
 70
     0
102
RTVSPropertyOp23
 70
     0
102
RTVSPropertyOp24
 70
     0
102
RTVSPropertyOp25
 70
     0
102
RTVSPropertyOp26
 70
     0
102
RTVSPropertyOp27
 70
     0
102
RTVSPropertyOp28
 70
     1
102
RTVSPropertyOp29
 70
     1
102
RTVSPropertyOp30
 70
     1
102
RTVSPropertyOp31
 70
     1
102
RTVSPropertyOp32
 70
     1
102
RTVSPropertyOp33
 70
     1
102
RTVSPropertyOp34
 70
     1
102
RTVSPropertyOp35
 70
     1
102
RTVSPropertyOp36
 70
     1
102
RTVSPropertyOp37
 70
     1
102
RTVSPropertyOp38
 70
     1
102
RTVSPropertyOp39
 70
     1
102
RTVSPropertyOp40
 70
     1
102
RTVSPropertyOp41
 70
     1
102
RTVSPropertyOp42
 70
     1
102
RTVSPropertyOp43
 70
     1
102
RTVSPropertyOp44
 70
     1
102
RTVSPropertyOp45
 70
     1
102
RTVSPropertyOp46
 70
     1
102
RTVSPropertyOp47
 70
     1
102
RTVSPropertyOp48
 70
     1
102
RTVSPropertyOp49
 70
     1
102
RTVSPropertyOp50
 70
     1
102
RTVSPropertyOp51
 70
     0
102
RTVSPropertyOp52
 70
     0
102
RTVSPropertyOp53
 70
     1
102
RTVSPropertyOp54
 70
     1
102
RTVSPropertyOp55
 70
     1
102
RTVSPropertyOp56
 70
     1
102
RTVSPropertyOp57
 70
     1
102
RTVSPropertyOp58
 70
     1
102
RTVSPropertyOp59
 70
     1
102
RTVSPropertyOp60
 70
     1
102
RTVSPropertyOp61
 70
     1
102
RTVSPropertyOp62
 70
     1
  0
XRECORD
  5
27D
102
{ACAD_REACTORS
330
27C
102
}
330
27C
100
AcDbXrecord
280
     1
102
RTVSPost2010Prop28
280
     0
102
RTVSPost2010PropOp28
 70
     1
102
RTVSPost2010Prop29
280
     1
102
RTVSPost2010PropOp29
 70
     1
102
RTVSPost2010Prop30
280
     1
102
RTVSPost2010PropOp30
 70
     1
102
RTVSPost2010Prop31
280
     0
102
RTVSPost2010PropOp31
 70
     1
102
RTVSPost2010Prop32
280
     0
102
RTVSPost2010PropOp32
 70
     1
102
RTVSPost2010Prop33
280
     0
102
RTVSPost2010PropOp33
 70
     1
102
RTVSPost2010Prop34
280
     0
102
RTVSPost2010PropOp34
 70
     1
102
RTVSPost2010Prop35
280
     0
102
RTVSPost2010PropOp35
 70
     1
102
RTVSPost2010Prop36
280
     0
102
RTVSPost2010PropOp36
 70
     1
102
RTVSPost2010Prop37
 90
       50
102
RTVSPost2010PropOp37
 70
     1
102
RTVSPost2010Prop38
140
0.0
102
RTVSPost2010PropOp38
 70
     1
102
RTVSPost2010Prop39
140
1.0
102
RTVSPost2010PropOp39
 70
     1
102
RTVSPost2010Prop40
 90
        0
102
RTVSPost2010PropOp40
 70
     1
102
RTVSPost2010Prop41ColorIndex
 90
       18
102
RTVSPost2010Prop41ColorRGB
 90
        0
102
RTVSPost2010PropOp41
 70
     1
102
RTVSPost2010Prop42
 90
       50
102
RTVSPost2010PropOp42
 70
     1
102
RTVSPost2010Prop43
 90
        3
102
RTVSPost2010PropOp43
 70
     1
102
RTVSPost2010Prop44ColorIndex
 90
        5
102
RTVSPost2010Prop44ColorRGB
 90
      255
102
RTVSPost2010PropOp44
 70
     1
102
RTVSPost2010Prop45
280
     0
102
RTVSPost2010PropOp45
 70
     1
102
RTVSPost2010Prop46
 90
       50
102
RTVSPost2010PropOp46
 70
     1
102
RTVSPost2010Prop47
 90
       50
102
RTVSPost2010PropOp47
 70
     1
102
RTVSPost2010Prop48
 90
       50
102
RTVSPost2010PropOp48
 70
     1
102
RTVSPost2010Prop49
280
     0
102
RTVSPost2010PropOp49
 70
     1
102
RTVSPost2010Prop50
 90
       50
102
RTVSPost2010PropOp50
 70
     1
102
RTVSPost2010Prop51ColorIndex
 90
      256
102
RTVSPost2010Prop51ColorRGB
 90
-16777216
102
RTVSPost2010PropOp51
 70
     0
102
RTVSPost2010Prop52
140
1.0
102
RTVSPost2010PropOp52
 70
     0
102
RTVSPost2010Prop53
 90
        2
102
RTVSPost2010PropOp53
 70
     1
102
RTVSPost2010Prop54
  1
strokes_ogs.tif
102
RTVSPost2010PropOp54
 70
     1
102
RTVSPost2010Prop55
280
     0
102
RTVSPost2010PropOp55
 70
     1
102
RTVSPost2010Prop56
140
1.0
102
RTVSPost2010PropOp56
 70
     1
102
RTVSPost2010Prop57
140
1.0
102
RTVSPost2010PropOp57
 70
     1
102
RTVSPropertyOp0
 70
     1
102
RTVSPropertyOp1
 70
     1
102
RTVSPropertyOp2
 70
     1
102
RTVSPropertyOp3
 70
     1
102
RTVSPropertyOp4
 70
     1
102
RTVSPropertyOp5
 70
     1
102
RTVSPropertyOp6
 70
     1
102
RTVSPropertyOp7
 70
     1
102
RTVSPropertyOp8
 70
     1
102
RTVSPropertyOp9
 70
     1
102
RTVSPropertyOp10
 70
     1
102
RTVSPropertyOp11
 70
     1
102
RTVSPropertyOp12
 70
     1
102
RTVSPropertyOp13
 70
     1
102
RTVSPropertyOp14
 70
     1
102
RTVSPropertyOp15
 70
     1
102
RTVSPropertyOp16
 70
     1
102
RTVSPropertyOp17
 70
     1
102
RTVSPropertyOp18
 70
     1
102
RTVSPropertyOp19
 70
     1
102
RTVSPropertyOp20
 70
     1
102
RTVSPropertyOp21
 70
     1
102
RTVSPropertyOp22
 70
     1
102
RTVSPropertyOp23
 70
     1
102
RTVSPropertyOp24
 70
     1
102
RTVSPropertyOp25
 70
     1
102
RTVSPropertyOp26
 70
     1
102
RTVSPropertyOp27
 70
     1
102
RTVSPropertyOp28
 70
     1
102
RTVSPropertyOp29
 70
     1
102
RTVSPropertyOp30
 70
     1
102
RTVSPropertyOp31
 70
     1
102
RTVSPropertyOp32
 70
     1
102
RTVSPropertyOp33
 70
     1
102
RTVSPropertyOp34
 70
     1
102
RTVSPropertyOp35
 70
     1
102
RTVSPropertyOp36
 70
     1
102
RTVSPropertyOp37
 70
     1
102
RTVSPropertyOp38
 70
     1
102
RTVSPropertyOp39
 70
     1
102
RTVSPropertyOp40
 70
     1
102
RTVSPropertyOp41
 70
     1
102
RTVSPropertyOp42
 70
     1
102
RTVSPropertyOp43
 70
     1
102
RTVSPropertyOp44
 70
     1
102
RTVSPropertyOp45
 70
     1
102
RTVSPropertyOp46
 70
     1
102
RTVSPropertyOp47
 70
     1
102
RTVSPropertyOp48
 70
     1
102
RTVSPropertyOp49
 70
     1
102
RTVSPropertyOp50
 70
     1
102
RTVSPropertyOp51
 70
     0
102
RTVSPropertyOp52
 70
     0
102
RTVSPropertyOp53
 70
     1
102
RTVSPropertyOp54
 70
     1
102
RTVSPropertyOp55
 70
     1
102
RTVSPropertyOp56
 70
     1
102
RTVSPropertyOp57
 70
     1
102
RTVSPropertyOp58
 70
     1
102
RTVSPropertyOp59
 70
     1
102
RTVSPropertyOp60
 70
     1
102
RTVSPropertyOp61
 70
     1
102
RTVSPropertyOp62
 70
     1
  0
XRECORD
  5
299
102
{ACAD_REACTORS
330
298
102
}
330
298
100
AcDbXrecord
280
     1
102
RTVSPost2010Prop28
280
     0
102
RTVSPost2010PropOp28
 70
     1
102
RTVSPost2010Prop29
280
     1
102
RTVSPost2010PropOp29
 70
     1
102
RTVSPost2010Prop30
280
     1
102
RTVSPost2010PropOp30
 70
     1
102
RTVSPost2010Prop31
280
     0
102
RTVSPost2010PropOp31
 70
     1
102
RTVSPost2010Prop32
280
     0
102
RTVSPost2010PropOp32
 70
     1
102
RTVSPost2010Prop33
280
     0
102
RTVSPost2010PropOp33
 70
     1
102
RTVSPost2010Prop34
280
     0
102
RTVSPost2010PropOp34
 70
     1
102
RTVSPost2010Prop35
280
     0
102
RTVSPost2010PropOp35
 70
     1
102
RTVSPost2010Prop36
280
     0
102
RTVSPost2010PropOp36
 70
     1
102
RTVSPost2010Prop37
 90
       50
102
RTVSPost2010PropOp37
 70
     1
102
RTVSPost2010Prop38
140
0.0
102
RTVSPost2010PropOp38
 70
     1
102
RTVSPost2010Prop39
140
1.0
102
RTVSPost2010PropOp39
 70
     1
102
RTVSPost2010Prop40
 90
        0
102
RTVSPost2010PropOp40
 70
     1
102
RTVSPost2010Prop41ColorIndex
 90
       18
102
RTVSPost2010Prop41ColorRGB
 90
        0
102
RTVSPost2010PropOp41
 70
     1
102
RTVSPost2010Prop42
 90
       50
102
RTVSPost2010PropOp42
 70
     1
102
RTVSPost2010Prop43
 90
        3
102
RTVSPost2010PropOp43
 70
     1
102
RTVSPost2010Prop44ColorIndex
 90
        5
102
RTVSPost2010Prop44ColorRGB
 90
      255
102
RTVSPost2010PropOp44
 70
     1
102
RTVSPost2010Prop45
280
     0
102
RTVSPost2010PropOp45
 70
     1
102
RTVSPost2010Prop46
 90
       50
102
RTVSPost2010PropOp46
 70
     1
102
RTVSPost2010Prop47
 90
       50
102
RTVSPost2010PropOp47
 70
     1
102
RTVSPost2010Prop48
 90
       50
102
RTVSPost2010PropOp48
 70
     1
102
RTVSPost2010Prop49
280
     0
102
RTVSPost2010PropOp49
 70
     1
102
RTVSPost2010Prop50
 90
       50
102
RTVSPost2010PropOp50
 70
     1
102
RTVSPost2010Prop51ColorIndex
 90
      256
102
RTVSPost2010Prop51ColorRGB
 90
-16777216
102
RTVSPost2010PropOp51
 70
     0
102
RTVSPost2010Prop52
140
1.0
102
RTVSPost2010PropOp52
 70
     0
102
RTVSPost2010Prop53
 90
        2
102
RTVSPost2010PropOp53
 70
     1
102
RTVSPost2010Prop54
  1
strokes_ogs.tif
102
RTVSPost2010PropOp54
 70
     1
102
RTVSPost2010Prop55
280
     0
102
RTVSPost2010PropOp55
 70
     1
102
RTVSPost2010Prop56
140
1.0
102
RTVSPost2010PropOp56
 70
     1
102
RTVSPost2010Prop57
140
1.0
102
RTVSPost2010PropOp57
 70
     1
102
RTVSPropertyOp0
 70
     1
102
RTVSPropertyOp1
 70
     1
102
RTVSPropertyOp2
 70
     1
102
RTVSPropertyOp3
 70
     1
102
RTVSPropertyOp4
 70
     1
102
RTVSPropertyOp5
 70
     1
102
RTVSPropertyOp6
 70
     1
102
RTVSPropertyOp7
 70
     1
102
RTVSPropertyOp8
 70
     1
102
RTVSPropertyOp9
 70
     1
102
RTVSPropertyOp10
 70
     1
102
RTVSPropertyOp11
 70
     1
102
RTVSPropertyOp12
 70
     1
102
RTVSPropertyOp13
 70
     1
102
RTVSPropertyOp14
 70
     1
102
RTVSPropertyOp15
 70
     1
102
RTVSPropertyOp16
 70
     1
102
RTVSPropertyOp17
 70
     1
102
RTVSPropertyOp18
 70
     1
102
RTVSPropertyOp19
 70
     1
102
RTVSPropertyOp20
 70
     1
102
RTVSPropertyOp21
 70
     1
102
RTVSPropertyOp22
 70
     1
102
RTVSPropertyOp23
 70
     1
102
RTVSPropertyOp24
 70
     1
102
RTVSPropertyOp25
 70
     1
102
RTVSPropertyOp26
 70
     1
102
RTVSPropertyOp27
 70
     1
102
RTVSPropertyOp28
 70
     1
102
RTVSPropertyOp29
 70
     1
102
RTVSPropertyOp30
 70
     1
102
RTVSPropertyOp31
 70
     1
102
RTVSPropertyOp32
 70
     1
102
RTVSPropertyOp33
 70
     1
102
RTVSPropertyOp34
 70
     1
102
RTVSPropertyOp35
 70
     1
102
RTVSPropertyOp36
 70
     1
102
RTVSPropertyOp37
 70
     1
102
RTVSPropertyOp38
 70
     1
102
RTVSPropertyOp39
 70
     1
102
RTVSPropertyOp40
 70
     1
102
RTVSPropertyOp41
 70
     1
102
RTVSPropertyOp42
 70
     1
102
RTVSPropertyOp43
 70
     1
102
RTVSPropertyOp44
 70
     1
102
RTVSPropertyOp45
 70
     1
102
RTVSPropertyOp46
 70
     1
102
RTVSPropertyOp47
 70
     1
102
RTVSPropertyOp48
 70
     1
102
RTVSPropertyOp49
 70
     1
102
RTVSPropertyOp50
 70
     1
102
RTVSPropertyOp51
 70
     0
102
RTVSPropertyOp52
 70
     0
102
RTVSPropertyOp53
 70
     1
102
RTVSPropertyOp54
 70
     1
102
RTVSPropertyOp55
 70
     1
102
RTVSPropertyOp56
 70
     1
102
RTVSPropertyOp57
 70
     1
102
RTVSPropertyOp58
 70
     1
102
RTVSPropertyOp59
 70
     1
102
RTVSPropertyOp60
 70
     1
102
RTVSPropertyOp61
 70
     1
102
RTVSPropertyOp62
 70
     1
  0
XRECORD
  5
297
102
{ACAD_REACTORS
330
296
102
}
330
296
100
AcDbXrecord
280
     1
102
RTVSPost2010Prop28
280
     0
102
RTVSPost2010PropOp28
 70
     1
102
RTVSPost2010Prop29
280
     1
102
RTVSPost2010PropOp29
 70
     1
102
RTVSPost2010Prop30
280
     1
102
RTVSPost2010PropOp30
 70
     1
102
RTVSPost2010Prop31
280
     0
102
RTVSPost2010PropOp31
 70
     1
102
RTVSPost2010Prop32
280
     0
102
RTVSPost2010PropOp32
 70
     1
102
RTVSPost2010Prop33
280
     0
102
RTVSPost2010PropOp33
 70
     1
102
RTVSPost2010Prop34
280
     0
102
RTVSPost2010PropOp34
 70
     1
102
RTVSPost2010Prop35
280
     0
102
RTVSPost2010PropOp35
 70
     1
102
RTVSPost2010Prop36
280
     0
102
RTVSPost2010PropOp36
 70
     1
102
RTVSPost2010Prop37
 90
       50
102
RTVSPost2010PropOp37
 70
     1
102
RTVSPost2010Prop38
140
0.0
102
RTVSPost2010PropOp38
 70
     1
102
RTVSPost2010Prop39
140
1.0
102
RTVSPost2010PropOp39
 70
     1
102
RTVSPost2010Prop40
 90
        0
102
RTVSPost2010PropOp40
 70
     1
102
RTVSPost2010Prop41ColorIndex
 90
       18
102
RTVSPost2010Prop41ColorRGB
 90
        0
102
RTVSPost2010PropOp41
 70
     1
102
RTVSPost2010Prop42
 90
       50
102
RTVSPost2010PropOp42
 70
     1
102
RTVSPost2010Prop43
 90
        3
102
RTVSPost2010PropOp43
 70
     1
102
RTVSPost2010Prop44ColorIndex
 90
        5
102
RTVSPost2010Prop44ColorRGB
 90
      255
102
RTVSPost2010PropOp44
 70
     1
102
RTVSPost2010Prop45
280
     0
102
RTVSPost2010PropOp45
 70
     1
102
RTVSPost2010Prop46
 90
       50
102
RTVSPost2010PropOp46
 70
     1
102
RTVSPost2010Prop47
 90
       50
102
RTVSPost2010PropOp47
 70
     1
102
RTVSPost2010Prop48
 90
       50
102
RTVSPost2010PropOp48
 70
     1
102
RTVSPost2010Prop49
280
     0
102
RTVSPost2010PropOp49
 70
     1
102
RTVSPost2010Prop50
 90
       50
102
RTVSPost2010PropOp50
 70
     1
102
RTVSPost2010Prop51ColorIndex
 90
      256
102
RTVSPost2010Prop51ColorRGB
 90
-16777216
102
RTVSPost2010PropOp51
 70
     0
102
RTVSPost2010Prop52
140
1.0
102
RTVSPost2010PropOp52
 70
     0
102
RTVSPost2010Prop53
 90
        2
102
RTVSPost2010PropOp53
 70
     1
102
RTVSPost2010Prop54
  1
strokes_ogs.tif
102
RTVSPost2010PropOp54
 70
     1
102
RTVSPost2010Prop55
280
     0
102
RTVSPost2010PropOp55
 70
     1
102
RTVSPost2010Prop56
140
1.0
102
RTVSPost2010PropOp56
 70
     1
102
RTVSPost2010Prop57
140
1.0
102
RTVSPost2010PropOp57
 70
     1
102
RTVSPropertyOp0
 70
     1
102
RTVSPropertyOp1
 70
     1
102
RTVSPropertyOp2
 70
     1
102
RTVSPropertyOp3
 70
     1
102
RTVSPropertyOp4
 70
     1
102
RTVSPropertyOp5
 70
     1
102
RTVSPropertyOp6
 70
     1
102
RTVSPropertyOp7
 70
     1
102
RTVSPropertyOp8
 70
     1
102
RTVSPropertyOp9
 70
     1
102
RTVSPropertyOp10
 70
     1
102
RTVSPropertyOp11
 70
     1
102
RTVSPropertyOp12
 70
     1
102
RTVSPropertyOp13
 70
     1
102
RTVSPropertyOp14
 70
     1
102
RTVSPropertyOp15
 70
     1
102
RTVSPropertyOp16
 70
     1
102
RTVSPropertyOp17
 70
     1
102
RTVSPropertyOp18
 70
     1
102
RTVSPropertyOp19
 70
     1
102
RTVSPropertyOp20
 70
     1
102
RTVSPropertyOp21
 70
     1
102
RTVSPropertyOp22
 70
     1
102
RTVSPropertyOp23
 70
     1
102
RTVSPropertyOp24
 70
     1
102
RTVSPropertyOp25
 70
     1
102
RTVSPropertyOp26
 70
     1
102
RTVSPropertyOp27
 70
     1
102
RTVSPropertyOp28
 70
     1
102
RTVSPropertyOp29
 70
     1
102
RTVSPropertyOp30
 70
     1
102
RTVSPropertyOp31
 70
     1
102
RTVSPropertyOp32
 70
     1
102
RTVSPropertyOp33
 70
     1
102
RTVSPropertyOp34
 70
     1
102
RTVSPropertyOp35
 70
     1
102
RTVSPropertyOp36
 70
     1
102
RTVSPropertyOp37
 70
     1
102
RTVSPropertyOp38
 70
     1
102
RTVSPropertyOp39
 70
     1
102
RTVSPropertyOp40
 70
     1
102
RTVSPropertyOp41
 70
     1
102
RTVSPropertyOp42
 70
     1
102
RTVSPropertyOp43
 70
     1
102
RTVSPropertyOp44
 70
     1
102
RTVSPropertyOp45
 70
     1
102
RTVSPropertyOp46
 70
     1
102
RTVSPropertyOp47
 70
     1
102
RTVSPropertyOp48
 70
     1
102
RTVSPropertyOp49
 70
     1
102
RTVSPropertyOp50
 70
     1
102
RTVSPropertyOp51
 70
     0
102
RTVSPropertyOp52
 70
     0
102
RTVSPropertyOp53
 70
     1
102
RTVSPropertyOp54
 70
     1
102
RTVSPropertyOp55
 70
     1
102
RTVSPropertyOp56
 70
     1
102
RTVSPropertyOp57
 70
     1
102
RTVSPropertyOp58
 70
     1
102
RTVSPropertyOp59
 70
     1
102
RTVSPropertyOp60
 70
     1
102
RTVSPropertyOp61
 70
     1
102
RTVSPropertyOp62
 70
     1
  0
XRECORD
  5
291
102
{ACAD_REACTORS
330
290
102
}
330
290
100
AcDbXrecord
280
     1
102
RTVSPost2010Prop28
280
     0
102
RTVSPost2010PropOp28
 70
     1
102
RTVSPost2010Prop29
280
     1
102
RTVSPost2010PropOp29
 70
     1
102
RTVSPost2010Prop30
280
     1
102
RTVSPost2010PropOp30
 70
     1
102
RTVSPost2010Prop31
280
     0
102
RTVSPost2010PropOp31
 70
     1
102
RTVSPost2010Prop32
280
     0
102
RTVSPost2010PropOp32
 70
     1
102
RTVSPost2010Prop33
280
     0
102
RTVSPost2010PropOp33
 70
     1
102
RTVSPost2010Prop34
280
     0
102
RTVSPost2010PropOp34
 70
     1
102
RTVSPost2010Prop35
280
     0
102
RTVSPost2010PropOp35
 70
     1
102
RTVSPost2010Prop36
280
     0
102
RTVSPost2010PropOp36
 70
     1
102
RTVSPost2010Prop37
 90
       50
102
RTVSPost2010PropOp37
 70
     1
102
RTVSPost2010Prop38
140
0.0
102
RTVSPost2010PropOp38
 70
     1
102
RTVSPost2010Prop39
140
1.0
102
RTVSPost2010PropOp39
 70
     1
102
RTVSPost2010Prop40
 90
        0
102
RTVSPost2010PropOp40
 70
     1
102
RTVSPost2010Prop41ColorIndex
 90
       18
102
RTVSPost2010Prop41ColorRGB
 90
        0
102
RTVSPost2010PropOp41
 70
     1
102
RTVSPost2010Prop42
 90
       50
102
RTVSPost2010PropOp42
 70
     1
102
RTVSPost2010Prop43
 90
        3
102
RTVSPost2010PropOp43
 70
     1
102
RTVSPost2010Prop44ColorIndex
 90
        5
102
RTVSPost2010Prop44ColorRGB
 90
      255
102
RTVSPost2010PropOp44
 70
     1
102
RTVSPost2010Prop45
280
     0
102
RTVSPost2010PropOp45
 70
     1
102
RTVSPost2010Prop46
 90
       50
102
RTVSPost2010PropOp46
 70
     1
102
RTVSPost2010Prop47
 90
       50
102
RTVSPost2010PropOp47
 70
     1
102
RTVSPost2010Prop48
 90
       50
102
RTVSPost2010PropOp48
 70
     1
102
RTVSPost2010Prop49
280
     0
102
RTVSPost2010PropOp49
 70
     1
102
RTVSPost2010Prop50
 90
       50
102
RTVSPost2010PropOp50
 70
     1
102
RTVSPost2010Prop51ColorIndex
 90
      256
102
RTVSPost2010Prop51ColorRGB
 90
-16777216
102
RTVSPost2010PropOp51
 70
     0
102
RTVSPost2010Prop52
140
1.0
102
RTVSPost2010PropOp52
 70
     0
102
RTVSPost2010Prop53
 90
        2
102
RTVSPost2010PropOp53
 70
     1
102
RTVSPost2010Prop54
  1
strokes_ogs.tif
102
RTVSPost2010PropOp54
 70
     1
102
RTVSPost2010Prop55
280
     0
102
RTVSPost2010PropOp55
 70
     1
102
RTVSPost2010Prop56
140
1.0
102
RTVSPost2010PropOp56
 70
     1
102
RTVSPost2010Prop57
140
1.0
102
RTVSPost2010PropOp57
 70
     1
102
RTVSPropertyOp0
 70
     1
102
RTVSPropertyOp1
 70
     1
102
RTVSPropertyOp2
 70
     1
102
RTVSPropertyOp3
 70
     1
102
RTVSPropertyOp4
 70
     1
102
RTVSPropertyOp5
 70
     1
102
RTVSPropertyOp6
 70
     1
102
RTVSPropertyOp7
 70
     1
102
RTVSPropertyOp8
 70
     1
102
RTVSPropertyOp9
 70
     1
102
RTVSPropertyOp10
 70
     1
102
RTVSPropertyOp11
 70
     1
102
RTVSPropertyOp12
 70
     1
102
RTVSPropertyOp13
 70
     1
102
RTVSPropertyOp14
 70
     1
102
RTVSPropertyOp15
 70
     1
102
RTVSPropertyOp16
 70
     1
102
RTVSPropertyOp17
 70
     1
102
RTVSPropertyOp18
 70
     1
102
RTVSPropertyOp19
 70
     1
102
RTVSPropertyOp20
 70
     1
102
RTVSPropertyOp21
 70
     1
102
RTVSPropertyOp22
 70
     1
102
RTVSPropertyOp23
 70
     1
102
RTVSPropertyOp24
 70
     1
102
RTVSPropertyOp25
 70
     1
102
RTVSPropertyOp26
 70
     1
102
RTVSPropertyOp27
 70
     1
102
RTVSPropertyOp28
 70
     1
102
RTVSPropertyOp29
 70
     1
102
RTVSPropertyOp30
 70
     1
102
RTVSPropertyOp31
 70
     1
102
RTVSPropertyOp32
 70
     1
102
RTVSPropertyOp33
 70
     1
102
RTVSPropertyOp34
 70
     1
102
RTVSPropertyOp35
 70
     1
102
RTVSPropertyOp36
 70
     1
102
RTVSPropertyOp37
 70
     1
102
RTVSPropertyOp38
 70
     1
102
RTVSPropertyOp39
 70
     1
102
RTVSPropertyOp40
 70
     1
102
RTVSPropertyOp41
 70
     1
102
RTVSPropertyOp42
 70
     1
102
RTVSPropertyOp43
 70
     1
102
RTVSPropertyOp44
 70
     1
102
RTVSPropertyOp45
 70
     1
102
RTVSPropertyOp46
 70
     1
102
RTVSPropertyOp47
 70
     1
102
RTVSPropertyOp48
 70
     1
102
RTVSPropertyOp49
 70
     1
102
RTVSPropertyOp50
 70
     1
102
RTVSPropertyOp51
 70
     0
102
RTVSPropertyOp52
 70
     0
102
RTVSPropertyOp53
 70
     1
102
RTVSPropertyOp54
 70
     1
102
RTVSPropertyOp55
 70
     1
102
RTVSPropertyOp56
 70
     1
102
RTVSPropertyOp57
 70
     1
102
RTVSPropertyOp58
 70
     1
102
RTVSPropertyOp59
 70
     1
102
RTVSPropertyOp60
 70
     1
102
RTVSPropertyOp61
 70
     1
102
RTVSPropertyOp62
 70
     1
  0
XRECORD
  5
293
102
{ACAD_REACTORS
330
292
102
}
330
292
100
AcDbXrecord
280
     1
102
RTVSPost2010Prop28
280
     0
102
RTVSPost2010PropOp28
 70
     1
102
RTVSPost2010Prop29
280
     1
102
RTVSPost2010PropOp29
 70
     1
102
RTVSPost2010Prop30
280
     1
102
RTVSPost2010PropOp30
 70
     1
102
RTVSPost2010Prop31
280
     0
102
RTVSPost2010PropOp31
 70
     1
102
RTVSPost2010Prop32
280
     0
102
RTVSPost2010PropOp32
 70
     1
102
RTVSPost2010Prop33
280
     0
102
RTVSPost2010PropOp33
 70
     1
102
RTVSPost2010Prop34
280
     0
102
RTVSPost2010PropOp34
 70
     1
102
RTVSPost2010Prop35
280
     0
102
RTVSPost2010PropOp35
 70
     1
102
RTVSPost2010Prop36
280
     0
102
RTVSPost2010PropOp36
 70
     1
102
RTVSPost2010Prop37
 90
       50
102
RTVSPost2010PropOp37
 70
     1
102
RTVSPost2010Prop38
140
0.0
102
RTVSPost2010PropOp38
 70
     1
102
RTVSPost2010Prop39
140
1.0
102
RTVSPost2010PropOp39
 70
     1
102
RTVSPost2010Prop40
 90
        0
102
RTVSPost2010PropOp40
 70
     1
102
RTVSPost2010Prop41ColorIndex
 90
       18
102
RTVSPost2010Prop41ColorRGB
 90
        0
102
RTVSPost2010PropOp41
 70
     1
102
RTVSPost2010Prop42
 90
       50
102
RTVSPost2010PropOp42
 70
     1
102
RTVSPost2010Prop43
 90
        3
102
RTVSPost2010PropOp43
 70
     1
102
RTVSPost2010Prop44ColorIndex
 90
        5
102
RTVSPost2010Prop44ColorRGB
 90
      255
102
RTVSPost2010PropOp44
 70
     1
102
RTVSPost2010Prop45
280
     0
102
RTVSPost2010PropOp45
 70
     1
102
RTVSPost2010Prop46
 90
       50
102
RTVSPost2010PropOp46
 70
     1
102
RTVSPost2010Prop47
 90
       50
102
RTVSPost2010PropOp47
 70
     1
102
RTVSPost2010Prop48
 90
       50
102
RTVSPost2010PropOp48
 70
     1
102
RTVSPost2010Prop49
280
     0
102
RTVSPost2010PropOp49
 70
     1
102
RTVSPost2010Prop50
 90
       50
102
RTVSPost2010PropOp50
 70
     1
102
RTVSPost2010Prop51ColorIndex
 90
      256
102
RTVSPost2010Prop51ColorRGB
 90
-16777216
102
RTVSPost2010PropOp51
 70
     0
102
RTVSPost2010Prop52
140
1.0
102
RTVSPost2010PropOp52
 70
     0
102
RTVSPost2010Prop53
 90
        2
102
RTVSPost2010PropOp53
 70
     1
102
RTVSPost2010Prop54
  1
strokes_ogs.tif
102
RTVSPost2010PropOp54
 70
     1
102
RTVSPost2010Prop55
280
     0
102
RTVSPost2010PropOp55
 70
     1
102
RTVSPost2010Prop56
140
1.0
102
RTVSPost2010PropOp56
 70
     1
102
RTVSPost2010Prop57
140
1.0
102
RTVSPost2010PropOp57
 70
     1
102
RTVSPropertyOp0
 70
     1
102
RTVSPropertyOp1
 70
     1
102
RTVSPropertyOp2
 70
     1
102
RTVSPropertyOp3
 70
     1
102
RTVSPropertyOp4
 70
     1
102
RTVSPropertyOp5
 70
     1
102
RTVSPropertyOp6
 70
     1
102
RTVSPropertyOp7
 70
     1
102
RTVSPropertyOp8
 70
     1
102
RTVSPropertyOp9
 70
     1
102
RTVSPropertyOp10
 70
     1
102
RTVSPropertyOp11
 70
     1
102
RTVSPropertyOp12
 70
     1
102
RTVSPropertyOp13
 70
     1
102
RTVSPropertyOp14
 70
     1
102
RTVSPropertyOp15
 70
     1
102
RTVSPropertyOp16
 70
     1
102
RTVSPropertyOp17
 70
     1
102
RTVSPropertyOp18
 70
     1
102
RTVSPropertyOp19
 70
     1
102
RTVSPropertyOp20
 70
     1
102
RTVSPropertyOp21
 70
     1
102
RTVSPropertyOp22
 70
     1
102
RTVSPropertyOp23
 70
     1
102
RTVSPropertyOp24
 70
     1
102
RTVSPropertyOp25
 70
     1
102
RTVSPropertyOp26
 70
     1
102
RTVSPropertyOp27
 70
     1
102
RTVSPropertyOp28
 70
     1
102
RTVSPropertyOp29
 70
     1
102
RTVSPropertyOp30
 70
     1
102
RTVSPropertyOp31
 70
     1
102
RTVSPropertyOp32
 70
     1
102
RTVSPropertyOp33
 70
     1
102
RTVSPropertyOp34
 70
     1
102
RTVSPropertyOp35
 70
     1
102
RTVSPropertyOp36
 70
     1
102
RTVSPropertyOp37
 70
     1
102
RTVSPropertyOp38
 70
     1
102
RTVSPropertyOp39
 70
     1
102
RTVSPropertyOp40
 70
     1
102
RTVSPropertyOp41
 70
     1
102
RTVSPropertyOp42
 70
     1
102
RTVSPropertyOp43
 70
     1
102
RTVSPropertyOp44
 70
     1
102
RTVSPropertyOp45
 70
     1
102
RTVSPropertyOp46
 70
     1
102
RTVSPropertyOp47
 70
     1
102
RTVSPropertyOp48
 70
     1
102
RTVSPropertyOp49
 70
     1
102
RTVSPropertyOp50
 70
     1
102
RTVSPropertyOp51
 70
     0
102
RTVSPropertyOp52
 70
     0
102
RTVSPropertyOp53
 70
     1
102
RTVSPropertyOp54
 70
     1
102
RTVSPropertyOp55
 70
     1
102
RTVSPropertyOp56
 70
     1
102
RTVSPropertyOp57
 70
     1
102
RTVSPropertyOp58
 70
     1
102
RTVSPropertyOp59
 70
     1
102
RTVSPropertyOp60
 70
     1
102
RTVSPropertyOp61
 70
     1
102
RTVSPropertyOp62
 70
     1
  0
XRECORD
  5
283
102
{ACAD_REACTORS
330
282
102
}
330
282
100
AcDbXrecord
280
     1
102
RTVSPost2010Prop28
280
     0
102
RTVSPost2010PropOp28
 70
     1
102
RTVSPost2010Prop29
280
     1
102
RTVSPost2010PropOp29
 70
     1
102
RTVSPost2010Prop30
280
     1
102
RTVSPost2010PropOp30
 70
     1
102
RTVSPost2010Prop31
280
     0
102
RTVSPost2010PropOp31
 70
     1
102
RTVSPost2010Prop32
280
     0
102
RTVSPost2010PropOp32
 70
     1
102
RTVSPost2010Prop33
280
     0
102
RTVSPost2010PropOp33
 70
     1
102
RTVSPost2010Prop34
280
     0
102
RTVSPost2010PropOp34
 70
     1
102
RTVSPost2010Prop35
280
     0
102
RTVSPost2010PropOp35
 70
     1
102
RTVSPost2010Prop36
280
     0
102
RTVSPost2010PropOp36
 70
     1
102
RTVSPost2010Prop37
 90
       50
102
RTVSPost2010PropOp37
 70
     1
102
RTVSPost2010Prop38
140
0.0
102
RTVSPost2010PropOp38
 70
     1
102
RTVSPost2010Prop39
140
1.0
102
RTVSPost2010PropOp39
 70
     1
102
RTVSPost2010Prop40
 90
        0
102
RTVSPost2010PropOp40
 70
     1
102
RTVSPost2010Prop41ColorIndex
 90
       18
102
RTVSPost2010Prop41ColorRGB
 90
        0
102
RTVSPost2010PropOp41
 70
     1
102
RTVSPost2010Prop42
 90
       50
102
RTVSPost2010PropOp42
 70
     1
102
RTVSPost2010Prop43
 90
        3
102
RTVSPost2010PropOp43
 70
     1
102
RTVSPost2010Prop44ColorIndex
 90
        5
102
RTVSPost2010Prop44ColorRGB
 90
      255
102
RTVSPost2010PropOp44
 70
     1
102
RTVSPost2010Prop45
280
     0
102
RTVSPost2010PropOp45
 70
     1
102
RTVSPost2010Prop46
 90
       50
102
RTVSPost2010PropOp46
 70
     1
102
RTVSPost2010Prop47
 90
       50
102
RTVSPost2010PropOp47
 70
     1
102
RTVSPost2010Prop48
 90
       50
102
RTVSPost2010PropOp48
 70
     1
102
RTVSPost2010Prop49
280
     0
102
RTVSPost2010PropOp49
 70
     1
102
RTVSPost2010Prop50
 90
       50
102
RTVSPost2010PropOp50
 70
     1
102
RTVSPost2010Prop51ColorIndex
 90
      256
102
RTVSPost2010Prop51ColorRGB
 90
-16777216
102
RTVSPost2010PropOp51
 70
     0
102
RTVSPost2010Prop52
140
1.0
102
RTVSPost2010PropOp52
 70
     0
102
RTVSPost2010Prop53
 90
        2
102
RTVSPost2010PropOp53
 70
     1
102
RTVSPost2010Prop54
  1
strokes_ogs.tif
102
RTVSPost2010PropOp54
 70
     1
102
RTVSPost2010Prop55
280
     0
102
RTVSPost2010PropOp55
 70
     1
102
RTVSPost2010Prop56
140
1.0
102
RTVSPost2010PropOp56
 70
     1
102
RTVSPost2010Prop57
140
1.0
102
RTVSPost2010PropOp57
 70
     1
102
RTVSPropertyOp0
 70
     1
102
RTVSPropertyOp1
 70
     1
102
RTVSPropertyOp2
 70
     1
102
RTVSPropertyOp3
 70
     1
102
RTVSPropertyOp4
 70
     1
102
RTVSPropertyOp5
 70
     1
102
RTVSPropertyOp6
 70
     1
102
RTVSPropertyOp7
 70
     1
102
RTVSPropertyOp8
 70
     1
102
RTVSPropertyOp9
 70
     1
102
RTVSPropertyOp10
 70
     1
102
RTVSPropertyOp11
 70
     1
102
RTVSPropertyOp12
 70
     1
102
RTVSPropertyOp13
 70
     1
102
RTVSPropertyOp14
 70
     1
102
RTVSPropertyOp15
 70
     1
102
RTVSPropertyOp16
 70
     1
102
RTVSPropertyOp17
 70
     1
102
RTVSPropertyOp18
 70
     1
102
RTVSPropertyOp19
 70
     1
102
RTVSPropertyOp20
 70
     1
102
RTVSPropertyOp21
 70
     1
102
RTVSPropertyOp22
 70
     1
102
RTVSPropertyOp23
 70
     1
102
RTVSPropertyOp24
 70
     1
102
RTVSPropertyOp25
 70
     1
102
RTVSPropertyOp26
 70
     1
102
RTVSPropertyOp27
 70
     1
102
RTVSPropertyOp28
 70
     1
102
RTVSPropertyOp29
 70
     1
102
RTVSPropertyOp30
 70
     1
102
RTVSPropertyOp31
 70
     1
102
RTVSPropertyOp32
 70
     1
102
RTVSPropertyOp33
 70
     1
102
RTVSPropertyOp34
 70
     1
102
RTVSPropertyOp35
 70
     1
102
RTVSPropertyOp36
 70
     1
102
RTVSPropertyOp37
 70
     1
102
RTVSPropertyOp38
 70
     1
102
RTVSPropertyOp39
 70
     1
102
RTVSPropertyOp40
 70
     1
102
RTVSPropertyOp41
 70
     1
102
RTVSPropertyOp42
 70
     1
102
RTVSPropertyOp43
 70
     1
102
RTVSPropertyOp44
 70
     1
102
RTVSPropertyOp45
 70
     1
102
RTVSPropertyOp46
 70
     1
102
RTVSPropertyOp47
 70
     1
102
RTVSPropertyOp48
 70
     1
102
RTVSPropertyOp49
 70
     1
102
RTVSPropertyOp50
 70
     1
102
RTVSPropertyOp51
 70
     0
102
RTVSPropertyOp52
 70
     0
102
RTVSPropertyOp53
 70
     1
102
RTVSPropertyOp54
 70
     1
102
RTVSPropertyOp55
 70
     1
102
RTVSPropertyOp56
 70
     1
102
RTVSPropertyOp57
 70
     1
102
RTVSPropertyOp58
 70
     1
102
RTVSPropertyOp59
 70
     1
102
RTVSPropertyOp60
 70
     1
102
RTVSPropertyOp61
 70
     1
102
RTVSPropertyOp62
 70
     1
  0
XRECORD
  5
277
102
{ACAD_REACTORS
330
276
102
}
330
276
100
AcDbXrecord
280
     1
102
RTVSPost2010Prop28
280
     0
102
RTVSPost2010PropOp28
 70
     1
102
RTVSPost2010Prop29
280
     1
102
RTVSPost2010PropOp29
 70
     1
102
RTVSPost2010Prop30
280
     1
102
RTVSPost2010PropOp30
 70
     1
102
RTVSPost2010Prop31
280
     0
102
RTVSPost2010PropOp31
 70
     1
102
RTVSPost2010Prop32
280
     0
102
RTVSPost2010PropOp32
 70
     1
102
RTVSPost2010Prop33
280
     0
102
RTVSPost2010PropOp33
 70
     1
102
RTVSPost2010Prop34
280
     0
102
RTVSPost2010PropOp34
 70
     1
102
RTVSPost2010Prop35
280
     0
102
RTVSPost2010PropOp35
 70
     1
102
RTVSPost2010Prop36
280
     0
102
RTVSPost2010PropOp36
 70
     1
102
RTVSPost2010Prop37
 90
       50
102
RTVSPost2010PropOp37
 70
     1
102
RTVSPost2010Prop38
140
0.0
102
RTVSPost2010PropOp38
 70
     1
102
RTVSPost2010Prop39
140
1.0
102
RTVSPost2010PropOp39
 70
     1
102
RTVSPost2010Prop40
 90
        0
102
RTVSPost2010PropOp40
 70
     1
102
RTVSPost2010Prop41ColorIndex
 90
       18
102
RTVSPost2010Prop41ColorRGB
 90
        0
102
RTVSPost2010PropOp41
 70
     1
102
RTVSPost2010Prop42
 90
       50
102
RTVSPost2010PropOp42
 70
     1
102
RTVSPost2010Prop43
 90
        3
102
RTVSPost2010PropOp43
 70
     1
102
RTVSPost2010Prop44ColorIndex
 90
        5
102
RTVSPost2010Prop44ColorRGB
 90
      255
102
RTVSPost2010PropOp44
 70
     1
102
RTVSPost2010Prop45
280
     0
102
RTVSPost2010PropOp45
 70
     1
102
RTVSPost2010Prop46
 90
       50
102
RTVSPost2010PropOp46
 70
     1
102
RTVSPost2010Prop47
 90
       50
102
RTVSPost2010PropOp47
 70
     1
102
RTVSPost2010Prop48
 90
       50
102
RTVSPost2010PropOp48
 70
     1
102
RTVSPost2010Prop49
280
     0
102
RTVSPost2010PropOp49
 70
     1
102
RTVSPost2010Prop50
 90
       50
102
RTVSPost2010PropOp50
 70
     1
102
RTVSPost2010Prop51ColorIndex
 90
      256
102
RTVSPost2010Prop51ColorRGB
 90
-16777216
102
RTVSPost2010PropOp51
 70
     0
102
RTVSPost2010Prop52
140
1.0
102
RTVSPost2010PropOp52
 70
     0
102
RTVSPost2010Prop53
 90
        2
102
RTVSPost2010PropOp53
 70
     1
102
RTVSPost2010Prop54
  1
strokes_ogs.tif
102
RTVSPost2010PropOp54
 70
     1
102
RTVSPost2010Prop55
280
     0
102
RTVSPost2010PropOp55
 70
     1
102
RTVSPost2010Prop56
140
1.0
102
RTVSPost2010PropOp56
 70
     1
102
RTVSPost2010Prop57
140
1.0
102
RTVSPost2010PropOp57
 70
     1
102
RTVSPropertyOp0
 70
     1
102
RTVSPropertyOp1
 70
     1
102
RTVSPropertyOp2
 70
     1
102
RTVSPropertyOp3
 70
     1
102
RTVSPropertyOp4
 70
     1
102
RTVSPropertyOp5
 70
     1
102
RTVSPropertyOp6
 70
     1
102
RTVSPropertyOp7
 70
     1
102
RTVSPropertyOp8
 70
     1
102
RTVSPropertyOp9
 70
     1
102
RTVSPropertyOp10
 70
     1
102
RTVSPropertyOp11
 70
     1
102
RTVSPropertyOp12
 70
     1
102
RTVSPropertyOp13
 70
     1
102
RTVSPropertyOp14
 70
     1
102
RTVSPropertyOp15
 70
     1
102
RTVSPropertyOp16
 70
     1
102
RTVSPropertyOp17
 70
     1
102
RTVSPropertyOp18
 70
     1
102
RTVSPropertyOp19
 70
     1
102
RTVSPropertyOp20
 70
     1
102
RTVSPropertyOp21
 70
     1
102
RTVSPropertyOp22
 70
     1
102
RTVSPropertyOp23
 70
     1
102
RTVSPropertyOp24
 70
     1
102
RTVSPropertyOp25
 70
     1
102
RTVSPropertyOp26
 70
     1
102
RTVSPropertyOp27
 70
     1
102
RTVSPropertyOp28
 70
     1
102
RTVSPropertyOp29
 70
     1
102
RTVSPropertyOp30
 70
     1
102
RTVSPropertyOp31
 70
     1
102
RTVSPropertyOp32
 70
     1
102
RTVSPropertyOp33
 70
     1
102
RTVSPropertyOp34
 70
     1
102
RTVSPropertyOp35
 70
     1
102
RTVSPropertyOp36
 70
     1
102
RTVSPropertyOp37
 70
     1
102
RTVSPropertyOp38
 70
     1
102
RTVSPropertyOp39
 70
     1
102
RTVSPropertyOp40
 70
     1
102
RTVSPropertyOp41
 70
     1
102
RTVSPropertyOp42
 70
     1
102
RTVSPropertyOp43
 70
     1
102
RTVSPropertyOp44
 70
     1
102
RTVSPropertyOp45
 70
     1
102
RTVSPropertyOp46
 70
     1
102
RTVSPropertyOp47
 70
     1
102
RTVSPropertyOp48
 70
     1
102
RTVSPropertyOp49
 70
     1
102
RTVSPropertyOp50
 70
     1
102
RTVSPropertyOp51
 70
     0
102
RTVSPropertyOp52
 70
     0
102
RTVSPropertyOp53
 70
     1
102
RTVSPropertyOp54
 70
     1
102
RTVSPropertyOp55
 70
     1
102
RTVSPropertyOp56
 70
     1
102
RTVSPropertyOp57
 70
     1
102
RTVSPropertyOp58
 70
     1
102
RTVSPropertyOp59
 70
     1
102
RTVSPropertyOp60
 70
     1
102
RTVSPropertyOp61
 70
     1
102
RTVSPropertyOp62
 70
     1
  0
XRECORD
  5
295
102
{ACAD_REACTORS
330
294
102
}
330
294
100
AcDbXrecord
280
     1
102
RTVSPost2010Prop28
280
     0
102
RTVSPost2010PropOp28
 70
     1
102
RTVSPost2010Prop29
280
     1
102
RTVSPost2010PropOp29
 70
     1
102
RTVSPost2010Prop30
280
     1
102
RTVSPost2010PropOp30
 70
     1
102
RTVSPost2010Prop31
280
     0
102
RTVSPost2010PropOp31
 70
     1
102
RTVSPost2010Prop32
280
     0
102
RTVSPost2010PropOp32
 70
     1
102
RTVSPost2010Prop33
280
     0
102
RTVSPost2010PropOp33
 70
     1
102
RTVSPost2010Prop34
280
     0
102
RTVSPost2010PropOp34
 70
     1
102
RTVSPost2010Prop35
280
     0
102
RTVSPost2010PropOp35
 70
     1
102
RTVSPost2010Prop36
280
     0
102
RTVSPost2010PropOp36
 70
     1
102
RTVSPost2010Prop37
 90
       50
102
RTVSPost2010PropOp37
 70
     1
102
RTVSPost2010Prop38
140
0.0
102
RTVSPost2010PropOp38
 70
     1
102
RTVSPost2010Prop39
140
1.0
102
RTVSPost2010PropOp39
 70
     1
102
RTVSPost2010Prop40
 90
        0
102
RTVSPost2010PropOp40
 70
     1
102
RTVSPost2010Prop41ColorIndex
 90
       18
102
RTVSPost2010Prop41ColorRGB
 90
        0
102
RTVSPost2010PropOp41
 70
     1
102
RTVSPost2010Prop42
 90
       50
102
RTVSPost2010PropOp42
 70
     1
102
RTVSPost2010Prop43
 90
        3
102
RTVSPost2010PropOp43
 70
     1
102
RTVSPost2010Prop44ColorIndex
 90
        5
102
RTVSPost2010Prop44ColorRGB
 90
      255
102
RTVSPost2010PropOp44
 70
     1
102
RTVSPost2010Prop45
280
     0
102
RTVSPost2010PropOp45
 70
     1
102
RTVSPost2010Prop46
 90
       50
102
RTVSPost2010PropOp46
 70
     1
102
RTVSPost2010Prop47
 90
       50
102
RTVSPost2010PropOp47
 70
     1
102
RTVSPost2010Prop48
 90
       50
102
RTVSPost2010PropOp48
 70
     1
102
RTVSPost2010Prop49
280
     0
102
RTVSPost2010PropOp49
 70
     1
102
RTVSPost2010Prop50
 90
       50
102
RTVSPost2010PropOp50
 70
     1
102
RTVSPost2010Prop51ColorIndex
 90
      256
102
RTVSPost2010Prop51ColorRGB
 90
-16777216
102
RTVSPost2010PropOp51
 70
     0
102
RTVSPost2010Prop52
140
1.0
102
RTVSPost2010PropOp52
 70
     0
102
RTVSPost2010Prop53
 90
        2
102
RTVSPost2010PropOp53
 70
     1
102
RTVSPost2010Prop54
  1
strokes_ogs.tif
102
RTVSPost2010PropOp54
 70
     1
102
RTVSPost2010Prop55
280
     0
102
RTVSPost2010PropOp55
 70
     1
102
RTVSPost2010Prop56
140
1.0
102
RTVSPost2010PropOp56
 70
     1
102
RTVSPost2010Prop57
140
1.0
102
RTVSPost2010PropOp57
 70
     1
102
RTVSPropertyOp0
 70
     1
102
RTVSPropertyOp1
 70
     1
102
RTVSPropertyOp2
 70
     1
102
RTVSPropertyOp3
 70
     1
102
RTVSPropertyOp4
 70
     1
102
RTVSPropertyOp5
 70
     1
102
RTVSPropertyOp6
 70
     1
102
RTVSPropertyOp7
 70
     1
102
RTVSPropertyOp8
 70
     1
102
RTVSPropertyOp9
 70
     1
102
RTVSPropertyOp10
 70
     1
102
RTVSPropertyOp11
 70
     1
102
RTVSPropertyOp12
 70
     1
102
RTVSPropertyOp13
 70
     1
102
RTVSPropertyOp14
 70
     1
102
RTVSPropertyOp15
 70
     1
102
RTVSPropertyOp16
 70
     1
102
RTVSPropertyOp17
 70
     1
102
RTVSPropertyOp18
 70
     1
102
RTVSPropertyOp19
 70
     1
102
RTVSPropertyOp20
 70
     1
102
RTVSPropertyOp21
 70
     1
102
RTVSPropertyOp22
 70
     1
102
RTVSPropertyOp23
 70
     1
102
RTVSPropertyOp24
 70
     1
102
RTVSPropertyOp25
 70
     1
102
RTVSPropertyOp26
 70
     1
102
RTVSPropertyOp27
 70
     1
102
RTVSPropertyOp28
 70
     1
102
RTVSPropertyOp29
 70
     1
102
RTVSPropertyOp30
 70
     1
102
RTVSPropertyOp31
 70
     1
102
RTVSPropertyOp32
 70
     1
102
RTVSPropertyOp33
 70
     1
102
RTVSPropertyOp34
 70
     1
102
RTVSPropertyOp35
 70
     1
102
RTVSPropertyOp36
 70
     1
102
RTVSPropertyOp37
 70
     1
102
RTVSPropertyOp38
 70
     1
102
RTVSPropertyOp39
 70
     1
102
RTVSPropertyOp40
 70
     1
102
RTVSPropertyOp41
 70
     1
102
RTVSPropertyOp42
 70
     1
102
RTVSPropertyOp43
 70
     1
102
RTVSPropertyOp44
 70
     1
102
RTVSPropertyOp45
 70
     1
102
RTVSPropertyOp46
 70
     1
102
RTVSPropertyOp47
 70
     1
102
RTVSPropertyOp48
 70
     1
102
RTVSPropertyOp49
 70
     1
102
RTVSPropertyOp50
 70
     1
102
RTVSPropertyOp51
 70
     0
102
RTVSPropertyOp52
 70
     0
102
RTVSPropertyOp53
 70
     1
102
RTVSPropertyOp54
 70
     1
102
RTVSPropertyOp55
 70
     1
102
RTVSPropertyOp56
 70
     1
102
RTVSPropertyOp57
 70
     1
102
RTVSPropertyOp58
 70
     1
102
RTVSPropertyOp59
 70
     1
102
RTVSPropertyOp60
 70
     1
102
RTVSPropertyOp61
 70
     1
102
RTVSPropertyOp62
 70
     1
  0
ENDSEC
  0
EOF
